» » »

Gallows, Misery Bass tabs (ver.2)

Artists:  A B C D E F G H I J K L M N O P Q R S T U V W X Y Z # 

Misery Bass tabs (ver.2)

Gallows Tabs
 Rating:
4/5 (4 votes)
Misery lessons Tabs too difficult? Try these video lessons and learn fast
                

Tuning: Drop D

My first bass tab in 2 years! OMFG!
I saw this was being requested. Decided to deliver.
Enjoy!


  Intro
G|-------------------------------------|
D|-------------------------------------|
A|--5~------4~------3~------2~------2--|
D|-------------------------------------|

G|-------------------------------------|
D|-------------------------------------|
A|----------6~---8\--------------------|
D|--0~--------------5~------3~------3--|


  Verse
G|-------------------------------------------------------------------|
D|-------------------------------------------------------------------|
A|----------66666666------------------------66666666------------356--|
D|--00000000--------555555553333333300000000--------555555553333-----|


  Chorus
G|-------------------------------------------------------------------|
D|-------------------------------------------------------------------|
A|--------------5533------------5533------------3355------------356--|
D|--000000000000----333333333333----555555555555----333333333333-----|

G|--------------------------------------------------------------------|
D|--------------------------------------------------------------------|
A|--------------5533------------5533------------3355------------------|
D|--000000000000----333333333333----555555555555----333333333333-3-1--|


  Breakdown
G|------------------------------------------------------|
D|------------------------------------------------------|
A|-------------------------------------------------356--|
D|--0-0-0-0--000--000--000-000--0-0-0-0--000--000-------|

G|------------------------------------------------------------|
D|------------------------------[x3]--------------------------|
A|-------------------------------------------------------356--|
D|--0-0-0-0--000--000--000-000--------0-0-0-0--000--000-------|


  End
G|--------------------|
D|--------------------|
A|--------------------|
D|--0-0-0-0--0-0-0-0--|
            
Submit corrections

comments powered by Disqus
↑ Back to top | Gallows Bass for Misery. Lyrics for acoustic guitar and electric guitar. Tablatures and chords are parodies/interpretations of the original songs. You may use it for private study, scholarship, research or language learning purposes only