>
 >
Misery

Misery Guitar Tabs

Gallows - Misery chords, tabs, tablatures, lyrics

Guitar lessons | Add/correct | Request | Top 50 tabs Artists:  A B C D E F G H I J K L M N O P Q R S T U V W X Y Z 0-9

Misery Guitar Tabs – Gallows

CD, Sheet music, Poster

Do you like Misery? Share with your friends now
Bass TabsBass Tabs v2Bass Tabs v3ChordsTabs


Tuning: Drop D

OH MY GOODNESS!!!
Best album ever.
Enjoy, :D

Also thanks to Spincycled for tabbing the piano intro and allowing me to use it! :D


  Piano Intro
E|---------------------------------------------------------------|
B|---------------------------------------------------------------|
G|------5-------5-----5---3---3-5-----2-------2-----2---0--------|
D|----3---3---3-----3---3---3-------3---3---3-----3---3---3---3--|
A|--5-------5-----4---------------3-------3-----2-----------2----|
D|---------------------------------------------------------------|

E|-------------------------------------------------------------|
B|------------------------------------------------3------------|
G|--------7-7h8p7-----7---5---5-7-----7-7h8p7---------5---3----|
D|------0-----------5---5---5-------5---------------3---3---3--|
A|----0-----------6---------------5-------------3--------------|
D|--0---------------------------5-------------3----------------|


  Intro
e|---------|
B|---------|
G|--5-7-8--|
D|--5-7-8--|
A|--3-5-6--|
D|---------|


  Verse
e|---------------------------------------------------------------------------|
B|-------------------------------33--33--------------------------------------|
G|-----------88888888---77--77-------------------88888888---------------578--|
D|--00000000-77777777-55555555-33333333-00000000-88888888-55555555-3333-578--|
A|--00000000-66666666-55555555-33333333-00000000-66666666-55555555-3333-356--|
D|--00000000----------55555555-33333333-00000000----------55555555-3333------|

  
  Chorus  Guitar 1
e|--------------------------------------------------------------------------|
B|--------------------------------------------------------------------------|
G|---------------7755--------------7755--------------7755--------------578--|
D|--000000000000-7755-333333333333-7755-555555555555-7755-333333333333-578--|
A|--000000000000-5533-333333333333-5533-555555555555-5533-333333333333-356--|
D|--000000000000------333333333333------555555555555------333333333333------|

e|---------------------------------------------------------------------------------|
B|---------------------------------------------------------------------------------|
G|---------------7755--------------7755--------------7755--------------------------|
D|--000000000000-7755-333333333333-7755-555555555555-7755-333333333333-3-1-0~------|
A|--000000000000-5533-333333333333-5533-555555555555-5533-333333333333-3-1-0~------|
D|--000000000000------333333333333------555555555555------333333333333-3-1-0~------|

  Chorus  Guitar 2
e|--------------------------------------------------------------------------|
B|--------------------------------------------------------------------------|
G|-----------------------------------[x3]------------------------------578--|
D|--0-0-5-0-3-0-0-7-0-8-0-7-0-3-5-3--------0-0-5-0-3-0-0-7-0-8-0-7-0-0-578--|
A|---------------------------------------------------------------------356--|
D|--------------------------------------------------------------------------|

e|---------------------------------------------------------------------------------|
B|---------------------------------------------------------------------------------|
G|-----------------------------------[x3]------------------------------3-1-0~------|
D|--0-0-5-0-3-0-0-7-0-8-0-7-0-3-5-3--------0-0-5-0-3-0-0-7-0-8-0-7-0-0-3-1-0~------|
A|---------------------------------------------------------------------3-1-0~------|
D|---------------------------------------------------------------------------------|


  Breakdown  Guitar 1
e|------------------------------------------------------------|
B|------------------------------------------------------------|
G|-------------------------------------------------------578--|
D|--0-0-0-0--000--000--000-000--[x3]--0-0-0-0--000--000--578--|
A|--0-0-0-0--000--000--000-000--------0-0-0-0--000--000--356--|
D|--0-0-0-0--000--000--000-000--------0-0-0-0--000--000-------|
    . . . .  ...  ...  ... ...        . . . .  ...  ...

  Breakdown  Guitar 2
e|--------------------------------------|
B|--------------------------------------|
G|--------------------------------------|
D|--------------------------------------|
A|----------3----------2p0---3p0--------|
D|--1--0--4---4---3-4------0-----0-3-2--|


  End
e|--------------------|
B|--------------------|
G|--------------------|
D|--0-0-0-0--0-0-0-0--|
A|--0-0-0-0--0-0-0-0--|
D|--0-0-0-0--0-0-0-0--|
    . . . .  . . . .





Comments


Popular Gallows tabs & chords
Death Voices Bass Tabs
Staring At The Rude Bois 3 Bass Tabs
The Riverbed 3 Bass Tabs
Will Someone Shoot That Fucking Snake Bass Tabs
Abandon Ship Tabs
Abandon Ship 2 Tabs
Last June Tabs
Orchestra Of Wolves Intro Tabs
Sick Of Feeling Sick Tabs
The Riverbed 1 Tabs


Song lyrics



↑ Back to top | Tablatures and chords are parodies/interpretations of the original songs. You may use it for private study, scholarship, research or language learning purposes only
© 2014 AZChords.com Contact us | Privacy policy | DMCA | Add/correct tabs | Request tabs | Top 50 tabs