» » »

In The Belly Of A Shark Tabs (ver.4)

Artists:  A B C D E F G H I J K L M N O P Q R S T U V W X Y Z # 

In The Belly Of A Shark Tabs (ver.4)

Gallows
Rating:
1/5 (1 vote)

Hard to play? Try these video lessons and learn fast.
                In The Belly Of A Shark


-----------------------------------------------|
-----------------------------------------------|
-----------------------------------------------|
------------4p0--------------------------------|
---0-0-3p0-------------------------------------|
----------------0-0-h3p0 5---------------------|

----------------------------------------------|
----------------------------------------------|
----------------------------------------------|
---------------4p0----------------------------|
---0-0-3p0------------------------------------|
-----------------------0-0-h3p0 5-------------|


----------------------------------------------|
----------------------------------------------|
----------------------------------------------|
-------------4p0------------------------------|
---0-0-3p0------------------------------------|
-------------------0-0-h3p0 5-----------------|


----------------------------------------------|
----------------------------------------------|
----------------------------------------------|
---------------4p0----------------------------|
---0-0-3p0------------------------------------|
-----------------------0-0-h3p0-5/6-----------|

--------------------------------------|
--------------------------------------|
--------------------------------------|
-----------------7-----5-----3--------|
-----------------7-----5-----3--------|
----5-5-5--------5-----3-----1--------|
    . . .

-------------------------------------------|
-------------------------------------------|
-------------------------------------------|
----------------4p0------------------------|
-----2p0---3p0------3p0--------------------|
-------------------------------------------|

----------------------------------------------------------|
----------------------------------------------------------|
---3x3x3x3x3-----555555---------777777--------------------|
---3x3x3x3x3-----333333---------555555--------------------|
---3x3x3x3x3-----333333---------555555--------------------|
-----------------333333---------555555--------------------|

----------------------------------------------------------|
----------------------------------------------------------|
---3x3x3x3x3-----555555---------777777--------------------|
---3x3x3x3x3-----333333---------555555--------------------|
---3x3x3x3x3-----333333---------555555--------------------|
-----------------333333---------555555--------------------|

--------------------------------------------------------------------|
--------------------------------------------------------------------|
---3x3x3x3x3-----555555---------777777----999999/10\9---------------|
---3x3x3x3x3-----333333---------555555----7777777777----------------|
---3x3x3x3x3-----333333---------555555----7777777777----------------|
-----------------333333---------555555----7777777777----------------|

-----------------------------------------------------------------------|
-----------------------------------------------------------------------|
-----------------------------------------------------------------------|
-------7------------4p0----5--4p0------3-------4p0---------------------|
-------7------0-3p0--------5-------3p0-3-----------3p0-2p0-------------|
-------5-------------------3-----------1-------------------------------|


This is the main part of the song, i have the solo, but it is missing a piece.

leave me feedback:)

my first tab.

intro = 100% right, i was told by them.
            
Hard to play? Try these video lessons and learn fast. | Correct




comments powered by Disqus
↑ Back to top | Tablatures and chords are parodies/interpretations of the original songs. You may use it for private study, scholarship, research or language learning purposes only