>
 >
In The Belly Of A Shark

In The Belly Of A Shark Guitar Tabs

Gallows - In The Belly Of A Shark chords, tabs, tablatures, lyrics

Guitar lessons | Add/correct | Request | Top 50 tabs Artists:  A B C D E F G H I J K L M N O P Q R S T U V W X Y Z 0-9

In The Belly Of A Shark Guitar Tabs – Gallows

CD, Sheet music, Poster

Do you like In The Belly Of A Shark? Share with your friends now
Bass TabsTabsTabs v2Tabs v3Tabs v4Tabs v5
-------------------------------------------------------------------------------
        in the belly of a shark  - gallows
-------------------------------------------------------------------------------

Tuning:drop d

into

guitar 1
e-----------------------------------------------------------------------|
b-----------------------------------------------------------------------|
g-----------------------------------------------------------------------|
d---------4p0----------------------4p0----------------------------------|
a-----3p0----------------------3po--------------------------------------|
d-0-0---------0------------0-0---------0--------------------------------|
guitar 2
e-----------------------------------------------------------------------|
b-----------------------------------------------------------------------|
g-----------------------------------------------------------------------|
d-----------------------------------------------------------------------|
a-----------------------------------------------------------------------|
d---------------0-0-3p0-5b---------------0-0-3p0-5b---------------------|
bass
g-----------------------------------------------------------------------|
d-----------------------------------------------------------------------|
a-----------------------------------------------------------------------|
d-----------------------------------------------------------------------|

guitar 1
e-----------------------------------------------------------------------|
b-----------------------------------------------------------------------|
g-----------------------------------------------------------------------|
d---------4p0----------------------4p0----------------------------------|
a-----3p0----------------------3po--------------------------------------|
d-0-0---------0------------0-0---------0--------------------------------|
guitar 2
e-----------------------------------------------------------------------|
b-----------------------------------------------------------------------|
g-------------------------------------------------5---------------------|
d----------------------------------------1--1--1--5--3------------------|
a----------------------------------------1--1--1--3--3------------------|
d---------------0-0-3p0-5b---------------1--1--1-----3------------------|
bass
g-----------------------------------------------------------------------|
d-----------------------------------------------------------------------|
a-------------------------------------------------3---------------------|
d----------------------------------------1--1--1-----3------------------|


verse

guitar 1
e-----------------------------------------------------------------------|
b-----------------------------------------------------------------------|
g-----------------------------------------------------------------------|
d---------4p0----------------------4p0----------------------------------|
a-----3p0----------------------3po--------------------------------------|
d-0-0---------0-0-0-3p0-5b-0-0---------0-0-0-3p0-5b---------------------|
guitar 2
e-----------------------------------------------------------------------|
b-----------------------------------------------------------------------|
g-----------------------------------------------------------------------|
d---------4p0----------------------4p0----------------------------------|
a-----3p0----------------------3p0--------------------------------------|
d-0-0---------0-0-0-3p0-5b-0-0---------0-0-0-3p0-5b---------------------|
bass
g-----------------------------------------------------------------------|
d-----------------------------------------------------------------------|
a-----------------------------------------------------------------------|
d-0-0-0-0-0-0-0-0-0-3p0-5b-0-0-0-0-0-0-0-0-0-3p0-5b---------------------|


guitar 1
e-----------------------------------------------------------------------|
b-----------------------------------------------------------------------|
g-----------------------------------------------5-----------------------|
d---------4p0----------------------4p0-1--1--1--5--3--------------------|
a-----3p0----------------------3po-----1--1--1--3--3--------------------|
d-0-0---------0-0-0-3p0-5b-0-0---------1--1--1-----3--------------------|
guitar 2
e-----------------------------------------------------------------------|
b-----------------------------------------------------------------------|
g-----------------------------------------------5-----------------------|
d---------4p0----------------------4p0-1--1--1--5--3--------------------|
a-----3p0----------------------3p0-----1--1--1--3--3--------------------|
d-0-0-----------0-0-3p0-5b-0-0---------1--1--1-----3--------------------|
bass
g-----------------------------------------------------------------------|
d-----------------------------------------------------------------------|
a-----------------------------------------------3-----------------------|
d-0-0-0-0-0-0-0-0-0-3p0-5b-0-0-0-0-0-0-1--1--1-----3--------------------|


guitar 1
e------------------------------------------------------------------------|
b------------------------------------------------------------------------|
g------------------------------------------------------------------------|
d-0----------------3--------------1--------------------------------------|
a-0----------------3--------------1--------------------------------------|
d-0----------------3--------------1--------------------------------------|
guitar 2
e-----------------------------------------------------------------------|
b-----------------------------------------------------------------------|
g-----------------------------------------------------------------------|
d-0----------------3--------------1-------------------------------------|
a-0----------------3--------------1-------------------------------------|
d-0----------------3--------------1-------------------------------------|
bass
g-----------------------------------------------------------------------|
d-----------------------------------------------------------------------|
a-----------------------------------------------------------------------|
d-0----------------3--------------1-------------------------------------|


guitar 1
e-----------------------------------------------------------------------|
b-----------------------------------------------------------------------|
g-----------------------------------------------------------------------|
d-0----------------3--------------1----------------6-6------------------|
a-0----------------3--------------1----------------6-6------------------|
d-0----------------3--------------1----------------6-6------------------|
guitar 2
e-----------------------------------------------------------------------|
b-----------------------------------------------------------------------|
g-----------------------------------------------------------------------|
d-0----------------3--------------1----------------6-6------------------|
a-0----------------3--------------1----------------6-6------------------|
d-0----------------3--------------1----------------6-6------------------|
bass
g-----------------------------------------------------------------------|
d-----------------------------------------------------------------------|
a-----------------------------------------------------------------------|
d-0----------------3--------------1----------------6-6------------------|


guitar 1
e-----------------------------------------------------------------------|
b-----------------------------------------------------------------------|
g-----------------------------------------------------------------------|
d-0---0--0--0--0--0--0-0-0-3--3-3-3-3-6--6-6-6-6------------------------|
a-0---0--0--0--0--0--0-0-0-3--3-3-3-3-6--6-6-6-6------------------------|
d-0---0--0--0--0--0--0-0-0-3--3-3-3-3-6--6-6-6-6------------------------|
guitar 2
e-----------------------------------------------------------------------|
b-----------------------------------------------------------------------|
g--------------------------5--5-5-5-5-8--8-8-8-8------------------------|
d-0---0--0--0--0--0--0-0-0-x--x-x-x-x-x--x-x-x-x------------------------|
a-0---0--0--0--0--0--0-0-0-3--3-3-3-3-6--6-6-6-6------------------------|
d-0---0--0--0--0--0--0-0-0----------------------------------------------|
bass
g-----------------------------------------------------------------------|
d-----------------------------------------------------------------------|
a-----------------------------------------------------------------------|
d-0---0--0--0--0--0--0-0-0-3--3-3-3-3-6--6-6-6-6------------------------|


guitar 1
e-----------------------------------------------------------------------|
b-----------------------------------------------------------------------|
g-----------------------------------------------------------------------|
d-0---0--0--0--0--0--0-0-0-3--3-3-3-3-6--6-6-6-6-8--8-8-8-8-------------|
a-0---0--0--0--0--0--0-0-0-3--3-3-3-3-6--6-6-6-6-8--8-8-8-8-------------|
d-0---0--0--0--0--0--0-0-0-3--3-3-3-3-6--6-6-6-6-8--8-8-8-8-------------|
guitar 2
e-----------------------------------------------------------------------|
b-----------------------------------------------------------------------|
g--------------------------5--5-5-5-5-8--8-8-8-8-8--8-8-8-8-------------|
d-0---0--0--0--0--0--0-0-0-x--x-x-x-x-x--x-x-x-x-x--x-x-x-x-------------|
a-0---0--0--0--0--0--0-0-0-3--3-3-3-3-6--6-6-6-6-6--6-6-6-6-------------|
d-0---0--0--0--0--0--0-0-0----------------------------------------------|
bass
g-----------------------------------------------------------------------|
d-----------------------------------------------------------------------|
a-----------------------------------------------------------------------|
d-0---0--0--0--0--0--0-0-0-3--3-3-3-3-6--6-6-6-6-8--8-8-8-8-------------|


guitar 1
e-----------------------------------------------------------------------|
b-----------------------------------------------------------------------|
g----------------------------------------------------5------------------|
d-0-------------1-----------3---------------1--1--1--5--3---------------|
a-0-------------1-----------3---------------1--1--1--3--3---------------|
d-0-------------1-----------3---------------1--1--1-----3---------------|
guitar 2
e-----------------------------------------------------------------------|
b-----------------------------------------------------------------------|
g----------------------------------------------------5------------------|
d---------4p0-----------4p0-----------4p0---1--1--1--5--3---------------|
a-----3p0-----------3p0-----------3p0-------1--1--1--3--3---------------|
d-0-0---------0-1-1---------1-3-3---------3-1--1--1-----3---------------|
bass
g-----------------------------------------------------------------------|
d-----------------------------------------------------------------------|
a----------------------------------------------------3------------------|
d-0-------------1-------------3-------------1--1--1-----3---------------|


guitar 1
e-----------------------------------------------------------------------|
b-----------------------------------------------------------------------|
g----------------------------------------------------5------------------|
d-0-------------1-----------3---------------1--1--1--5--3---------------|
a-0-------------1-----------3---------------1--1--1--3--3---------------|
d-0-------------1-----------3---------------1--1--1-----3---------------|
guitar 2
e-----------------------------------------------------------------------|
b-----------------------------------------------------------------------|
g----------------------------------------------------5------------------|
d---------4p0-----------4p0-----------7p0---1--1--1--5--3---------------|
a-----3p0-----------3p0-----------6p0-------1--1--1--3--3---------------|
d-0-0---------0-1-1---------1-3-3---------3-1--1--1-----3---------------|
bass
g-----------------------------------------------------------------------|
d-----------------------------------------------------------------------|
a----------------------------------------------------3------------------|
d-0-------------1--------------3------------1--1--1-----3---------------|


guitar 1
e-----------------------------------------------------------------------|
b-----------------------------------------------------------------------|
g----------------------------------------------------5------------------|
d-0-0-0-0-0-0-0-1-1-1-1-1-1-3-3-3-3-3-3-3-3-1--1--1--5--3---------------|
a-0-0-0-0-0-0-0-1-1-1-1-1-1-3-3-3-3-3-3-3-3-1--1--1--3--3---------------|
d-0-0-0-0-0-0-0-1-1-1-1-1-1-3-3-3-3-3-3-3-3-1--1--1-----3---------------|
guitar 2
e-----------------------------------------------------------------------|
b-----------------------------------------------------------------------|
g----------------------------------------------------5------------------|
d---------4p0-----------4p0-----------4p0---1--1--1--5--3---------------|
a-----3p0-----------3p0-----------3p0-------1--1--1--3--3---------------|
d-0-0---------0-1-1---------1-3-3---------3-1--1--1-----3---------------|
bass
g-----------------------------------------------------------------------|
d-----------------------------------------------------------------------|
a----------------------------------------------------3------------------|
d-0-0-0-0-0-0-0-1-1-1-1-1-1-1-3-3-3-3-3-3-3-1--1--1-----3---------------|


guitar 1
e-----------------------------------------------------------------------|
b-----------------------------------------------------------------------|
g----------------------------------------------------5------------------|
d-0-0-0-0-0-0-0-1-1-1-1-1-1-3-3-3-3-3-3-3-3-1--1--1--5--3---------------|
a-0-0-0-0-0-0-0-1-1-1-1-1-1-3-3-3-3-3-3-3-3-1--1--1--3--3---------------|
d-0-0-0-0-0-0-0-1-1-1-1-1-1-3-3-3-3-3-3-3-3-1--1--1-----3---------------|
guitar 2
e-----------------------------------------------------------------------|
b-----------------------------------------------------------------------|
g----------------------------------------------------5------------------|
d---------4p0-----------4p0-----------4p0---1--1--1--5--3---------------|
a-----3p0-----------3p0-----------3p0-------1--1--1--3--3---------------|
d-0-0---------0-1-1---------1-3-3---------3-1--1--1-----3---------------|
bass
g-----------------------------------------------------------------------|
d-----------------------------------------------------------------------|
a----------------------------------------------------3------------------|
d-0-0-0-0-0-0-0-1-1-1-1-1-1-1-3-3-3-3-3-3-3-1--1--1-----3---------------|


guitar 1
e-----------------------------------------------------------------------|
b-----------------------------------------------------------------------|
g-----------------------------------------------------------------------|
d-1---------------------------------------------------------------------|
a-1---------------------------------------------------------------------|
d-1---------------------------------------------------------------------|
guitar 2
e-----------------------------------------------------------------------|
b-----------------------------------------------------------------------|
g-----------------------------------------------------------------------|
d-1---------------------------------------------------------------------|
a-1---------------------------------------------------------------------|
d-1---------------------------------------------------------------------|
bass
g-----------------------------------------------------------------------|
d-----------------------------------------------------------------------|
a-----------------------------------------------------------------------|
d-1---------------------------------------------------------------------|


guitar 1
e-----------------------------------------------------------------------|
b-----------------------------------------------------------------------|
g-----------------------------------------------------------------------|
d-----------------------------------------------------------------------|
a-----------------------------------------------------------------------|
d-----------------------------------------------------------------------|
guitar 2
e-----------------------------------------------------------------------|
b-----------------------------------------------------------------------|
g-----------------------------------------------------------------------|
d-----------------------------------------------------------------------|
a-----------------------------------------------------------------------|
d-----------------------------------------------------------------------|
bass
g-----------------------------------------------------------------------|
d-----------------------------------------------------------------------|
a-----------------------------------------------------------------------|
d-0--0-0-0-0-0-0-0-0-0-0-0-3--3-3-3-3-3-3-3-3-3-3-3---------------------|


guitar 1
e-----------------------------------------------------------------------|
b-----------------------------------------------------------------------|
g-----------------------------------------------5-----------------------|
d--------------------------------------1--1--1--5--3--------------------|
a--------------------------------------1--1--1--3--3--------------------|
d--------------------------------------1--1--1-----3--------------------|
guitar 2
e-----------------------------------------------------------------------|
b-----------------------------------------------------------------------|
g-----------------------------------------------5-----------------------|
d--------------------------------------1--1--1--5--3--------------------|
a--------------------------------------1--1--1--3--3--------------------|
d--------------------------------------1--1--1-----3--------------------|
bass
g-----------------------------------------------------------------------|
d-----------------------------------------------------------------------|
a-----------------------------------------------3-----------------------|
d-5-5-5-5-5-5-6--6-6-6-6-6-0-0-0-0-0-0-1--1--1-----3--------------------|

guitar 1
e-----------------------------------------------------------------------|
b-----------------------------------------------------------------------|
g-----------------------------------------------------------------------|
d---------4p0----------------------4p0----------------------------------|
a-----3p0----------------------3po--------------------------------------|
d-0-0---------0-0-0-3p0-5b-0-0---------0-0-0-3p0-5b---------------------|
guitar 2
e-----------------------------------------------------------------------|
b-----------------------------------------------------------------------|
g-----------------------------------------------------------------------|
d---------4p0----------------------4p0----------------------------------|
a-----3p0----------------------3p0--------------------------------------|
d-0-0---------0-0-0-3p0-5b-0-0---------0-0-0-3p0-5b---------------------|
bass
g-----------------------------------------------------------------------|
d-----------------------------------------------------------------------|
a-----------------------------------------------------------------------|
d-0--0-0-0-0-0-0-0-0-0-0-0-3--3-3-3-3-3-3-3-3-3-3-3---------------------|


guitar 1
e-----------------------------------------------------------------------|
b-----------------------------------------------------------------------|
g-----------------------------------------------5-----------------------|
d---------4p0----------------------4p0-1--1--1--5--3--------------------|
a-----3p0----------------------3po-----1--1--1--3--3--------------------|
d-0-0---------0-0-0-3p0-5b-0-0---------1--1--1-----3--------------------|
guitar 2
e-----------------------------------------------------------------------|
b-----------------------------------------------------------------------|
g-----------------------------------------------5-----------------------|
d---------4p0----------------------4p0-1--1--1--5--3--------------------|
a-----3p0----------------------3p0-----1--1--1--3--3--------------------|
d-0-0-----------0-0-3p0-5b-0-0---------1--1--1-----3--------------------|
bass
g-----------------------------------------------------------------------|
d-----------------------------------------------------------------------|
a-----------------------------------------------3-----------------------|
d-5-5-5-5-5-5-6--6-6-6-6-6-0-0-0-0-0-0-1--1--1-----3--------------------|

solo
guitar 1
e-----------------------------------------------------------------------|
b-----------------------------------------------------------------------|
g-----------------------------------------------------------------------|
d-0--0-0-0-0-0-0-0-0-0-0-0-3--3-3-3-3-3-3-3-3-3-3-3---------------------|
a-0--0-0-0-0-0-0-0-0-0-0-0-3--3-3-3-3-3-3-3-3-3-3-3---------------------|
d-0--0-0-0-0-0-0-0-0-0-0-0-3--3-3-3-3-3-3-3-3-3-3-3---------------------|
bass
g-----------------------------------------------------------------------|
d-----------------------------------------------------------------------|
a-----------------------------------------------------------------------|
d-0--0-0-0-0-0-0-0-0-0-0-0-3--3-3-3-3-3-3-3-3-3-3-3---------------------|

guitar 1
e------------------------------------------------------------------------|
b------------------------------------------------------------------------|
g-----------------------------------------------5------------------------|
d-5-5-5-5-5-5-6--6-6-6-6-6-0-0-0-0-0-0-1--1--1--5--3---------------------|
a-5-5-5-5-5-5-6--6-6-6-6-6-0-0-0-0-0-0-1--1--1--3--3---------------------|
d-5-5-5-5-5-5-6--6-6-6-6-6-0-0-0-0-0-0-1--1--1-----3---------------------|
bass
g-----------------------------------------------------------------------|
d-----------------------------------------------------------------------|
a-----------------------------------------------3-----------------------|
d-5-5-5-5-5-5-6--6-6-6-6-6-0-0-0-0-0-0-1--1--1-----3--------------------|

guitar 1
e-----------------------------------------------------------------------|
b-----------------------------------------------------------------------|
g-----------------------------------------------------------------------|
d-0--0-0-0-0-0-0-0-0-0-0-0-3--3-3-3-3-3-3-3-3-3-3-3---------------------|
a-0--0-0-0-0-0-0-0-0-0-0-0-3--3-3-3-3-3-3-3-3-3-3-3---------------------|
d-0--0-0-0-0-0-0-0-0-0-0-0-3--3-3-3-3-3-3-3-3-3-3-3---------------------|
bass
g-----------------------------------------------------------------------|
d-----------------------------------------------------------------------|
a-----------------------------------------------------------------------|
d-0--0-0-0-0-0-0-0-0-0-0-0-3--3-3-3-3-3-3-3-3-3-3-3---------------------|

guitar 1
e------------------------------------------------------------------------|
b------------------------------------------------------------------------|
g------------------------------------------------------------------------|
d-5-5-5-5-5-5-6--6-6-6-6-6-0-0-0-0-0-0-----------------------------------|
a-5-5-5-5-5-5-6--6-6-6-6-6-0-0-0-0-0-0-----------------------------------|
d-5-5-5-5-5-5-6--6-6-6-6-6-0-0-0-0-0-0-----------------------------------|
bass
g-----------------------------------------------------------------------|
d-----------------------------------------------------------------------|
a-----------------------------------------------------------------------|
d-5-5-5-5-5-5-6--6-6-6-6-6-0-0-0-0-0-0----------------------------------|

solo
guitar 2
e------------------------------------------------------------------------|
b------------------------------------------------------------------------|
g-14b-14-14-14-14-14-14p12-12-10-10---------10-----10--------------------|
d-----------------------------------12-10h12--10h12--10h12---------------|
a------------------------------------------------------------------------|
d------------------------------------------------------------------------|
guitar 2
e------------------------------------------------------------------------|
b-12---12--12--14---14--14--16---16--16----------------------------------|
g-14b--14b-14b-17b--17b-17b-19b--19b-19b--19b----------------------------|
d------------------------------------------------------------------------|
a------------------------------------------------------------------------|
d------------------------------------------------------------------------|
guitar 2                                            x8
e--------------------------------------------17b-20p19p17----22b---------|
b-----18------------------------------18---------------------------------|
g-19b---19---17---18--17-18-17-18-19b---19-17----------------------------|
d------------------------------------------------------------------------|
a------------------------------------------------------------------------|
d------------------------------------------------------------------------|

guitar 1
e-----------------------------------------------------------------------|
b-----------------------------------------------------------------------|
g----------5----------------5----------------5--------------------------|
d-1--1--1--5--3--0-1--1--1--5--3--0-1--1--1--5--3-----------------------|
a-1--1--1--3--3--0-1--1--1--3--3--0-1--1--1--3--3-----------------------|
d-1--1--1-----3--0-1--1--1-----3--0-1--1--1-----3-----------------------|
guitar 2
e-----------------------------------------------------------------------|
b-----------------------------------------------------------------------|
g----------5----------------5----------------5--------------------------|
d-1--1--1--5--3--0-1--1--1--5--3--0-1--1--1--5--3-----------------------|
a-1--1--1--3--3--0-1--1--1--3--3--0-1--1--1--3--3-----------------------|
d-1--1--1-----3--0-1--1--1-----3--0-1--1--1-----3-----------------------|
bass
g-----------------------------------------------------------------------|
d-----------------------------------------------------------------------|
a----------3----------------3----------------3--------------------------|
d-1--1--1-----3--0-1--1--1-----3--0-1--1--1-----3-----------------------|

guitar 1
e-----------------------------------------------------------------------|
b-----------------------------------------------------------------------|
g-----------------------------------------------------------------------|
d-0---------------------------------------------------------------------|
a-0---------------------------------------------------------------------|
d-0---------------------------------------------------------------------|
guitar 2
e-----------------------------------------------------------------------|
b-----------------------------------------------------------------------|
g-----------------------------------------------------------------------|
d-0---------------------------------------------------------------------|
a-0---------------------------------------------------------------------|
d-0---------------------------------------------------------------------|
bass
g-----------------------------------------------------------------------|
d-----------------------------------------------------------------------|
a-----------------------------------------------------------------------|
d-0--0--0-0-0--0--0--0--0-0-0--0--0--0-0-0--0--0--0-0-0-----------------|

guitar 1
e-----------------------------------------------------------------------|
b-----------------------------------------------------------------------|
g-----------------------------------------------------------------------|
d-0---------------------------------------------------------------------|
a-0---------------------------------------------------------------------|
d-0---------------------------------------------------------------------|
guitar 2
e-2---------------------------------------------------------------------|
b-3---------------------------------------------------------------------|
g-2---------------------------------------------------------------------|
d-0---------------------------------------------------------------------|
a-0---------------------------------------------------------------------|
d-0---------------------------------------------------------------------|
bass
g-----------------------------------------------------------------------|
d-----------------------------------------------------------------------|
a-----------------------------------------------------------------------|
d-0--0--0-0-0--0--0--0--0-0-0--0--0--0-0-0--0--0--0-0-0-----------------|

guitar 1
e-----------------------------------------------------------------------|
b-----------------------------------------------------------------------|
g-----------------------------------------------------------------------|
d-0-0-0-0-0-0-0-0-0-0-0-0-0-0-0-0-3-3-3-3-3-3-3-3-3-3-3-3-3-3-3-3-------|
a-0-0-0-0-0-0-0-0-0-0-0-0-0-0-0-0-3-3-3-3-3-3-3-3-3-3-3-3-3-3-3-3-------|
d-0-0-0-0-0-0-0-0-0-0-0-0-0-0-0-0-3-3-3-3-3-3-3-3-3-3-3-3-3-3-3-3-------|
guitar 2
e-----------------------------------------------------------------------|
b-----------------------------------------------------------------------|
g-----------------------------------------------------------------------|
d-0-0-0-0-0-0-0-0-0-0-0-0-0-0-0-0-3-3-3-3-3-3-3-3-3-3-3-3-3-3-3-3-------|
a-0-0-0-0-0-0-0-0-0-0-0-0-0-0-0-0-3-3-3-3-3-3-3-3-3-3-3-3-3-3-3-3-------|
d-0-0-0-0-0-0-0-0-0-0-0-0-0-0-0-0-3-3-3-3-3-3-3-3-3-3-3-3-3-3-3-3-------|
bass
g-----------------------------------------------------------------------|
d-----------------------------------------------------------------------|
a-----------------------------------------------------------------------|
d-0-0-0-0-0-0-0-0-0-0-0-0-0-0-0-0-3-3-3-3-3-3-3-3-3-3-3-3-3-3-3-3-------|

guitar 1
e-----------------------------------------------------------------------|
b-----------------------------------------------------------------------|
g-5-5-5-5-5-5-5-5-8-8-8-8-8-8-8-8-7-7-7-7-7-7-7-7-7-7-7-7-7-7-7-7-------|
d-5-5-5-5-5-5-5-5-8-8-8-8-8-8-8-8-7-7-7-7-7-7-7-7-7-7-7-7-7-7-7-7-------|
a-3-3-3-3-3-3-3-3-6-6-6-6-6-6-6-6-5-5-5-5-5-5-5-5-5-5-5-5-5-5-5-5-------|
d-----------------------------------------------------------------------|
guitar 2
e-----------------------------------------------------------------------|
b-----------------------------------------------------------------------|
g-5-5-5-5-5-5-5-5-8-8-8-8-8-8-8-8-7-7-7-7-7-7-7-7-7-7-7-7-7-7-7-7-------|
d-5-5-5-5-5-5-5-5-8-8-8-8-8-8-8-8-7-7-7-7-7-7-7-7-7-7-7-7-7-7-7-7-------|
a-3-3-3-3-3-3-3-3-6-6-6-6-6-6-6-6-5-5-5-5-5-5-5-5-5-5-5-5-5-5-5-5-------|
d-----------------------------------------------------------------------|
bass
g-----------------------------------------------------------------------|
d-----------------------------------------------------------------------|
a-3-3-3-3-3-3-3-3-6-6-6-6-6-6-6-6-5-5-5-5-5-5-5-5-5-5-5-5-5-5-5-5-------|
d-----------------------------------------------------------------------|

guitar 1
e-----------------------------------------------------------------------|
b-----------------------------------------------------------------------|
g-----------------------------------------------------------------------|
d-0-0-0-0-0-0-0-0-0-0-0-0-0-0-0-0-3-3-3-3-3-3-3-3-3-3-3-3-3-3-3-3-------|
a-0-0-0-0-0-0-0-0-0-0-0-0-0-0-0-0-3-3-3-3-3-3-3-3-3-3-3-3-3-3-3-3-------|
d-0-0-0-0-0-0-0-0-0-0-0-0-0-0-0-0-3-3-3-3-3-3-3-3-3-3-3-3-3-3-3-3-------|
guitar 2
e-----------------------------------------------------------------------|
b-----------------------------------------------------------------------|
g-----------------------------------------------------------------------|
d-0-0-0-0-0-0-0-0-0-0-0-0-0-0-0-0-3-3-3-3-3-3-3-3-3-3-3-3-3-3-3-3-------|
a-0-0-0-0-0-0-0-0-0-0-0-0-0-0-0-0-3-3-3-3-3-3-3-3-3-3-3-3-3-3-3-3-------|
d-0-0-0-0-0-0-0-0-0-0-0-0-0-0-0-0-3-3-3-3-3-3-3-3-3-3-3-3-3-3-3-3-------|
bass
g-----------------------------------------------------------------------|
d-----------------------------------------------------------------------|
a-----------------------------------------------------------------------|
d-0-0-0-0-0-0-0-0-0-0-0-0-0-0-0-0-3-3-3-3-3-3-3-3-3-3-3-3-3-3-3-3-------|

guitar 1
e-----------------------------------------------------------------------|
b-----------------------------------------------------------------------|
g-5-5-5-5-5-5-5-5-8-8-8-8-8-8-8-8-7-7-7-7-7-7-7-7-7-7-7-7-7-7-7-7-------|
d-5-5-5-5-5-5-5-5-8-8-8-8-8-8-8-8-7-7-7-7-7-7-7-7-7-7-7-7-7-7-7-7-------|
a-3-3-3-3-3-3-3-3-6-6-6-6-6-6-6-6-5-5-5-5-5-5-5-5-5-5-5-5-5-5-5-5-------|
d-----------------------------------------------------------------------|
guitar 2
e-----------------------------------------------------------------------|
b-----------------------------------------------------------------------|
g-5-5-5-5-5-5-5-5-8-8-8-8-8-8-8-8-7-7-7-7-7-7-7-7-7-7-7-7-7-7-7-7-------|
d-5-5-5-5-5-5-5-5-8-8-8-8-8-8-8-8-7-7-7-7-7-7-7-7-7-7-7-7-7-7-7-7-------|
a-3-3-3-3-3-3-3-3-6-6-6-6-6-6-6-6-5-5-5-5-5-5-5-5-5-5-5-5-5-5-5-5-------|
d-----------------------------------------------------------------------|
bass
g-----------------------------------------------------------------------|
d-----------------------------------------------------------------------|
a-3-3-3-3-3-3-3-3-6-6-6-6-6-6-6-6-5-5-5-5-5-5-5-5-5-5-5-5-5-5-5-5-------|
d-----------------------------------------------------------------------|

outro

guitar 1
e-----------------------------------------------------------------------|
b-----------------------------------------------------------------------|
g-----------------------------------------------------------------------|
d-0--0--0-0-0--0--0--0--0-0-0--0--0--0-0-0--0--0--0-0-0-----------------|
a-0--0--0-0-0--0--0--0--0-0-0--0--0--0-0-0--0--0--0-0-0-----------------|
d-0--0--0-0-0--0--0--0--0-0-0--0--0--0-0-0--0--0--0-0-0-----------------|guitar 2
e-----------------------------------------------------------------------|
b-----------------------------------------------------------------------|
g-----------------------------------------------------------------------|
d-0--0--0-0-0--0--0--0--0-0-0--0--0--0-0-0--0--0--0-0-0-----------------|
a-0--0--0-0-0--0--0--0--0-0-0--0--0--0-0-0--0--0--0-0-0-----------------|
d-0--0--0-0-0--0--0--0--0-0-0--0--0--0-0-0--0--0--0-0-0-----------------|
bass
g-----------------------------------------------------------------------|
d-----------------------------------------------------------------------|
a-----------------------------------------------------------------------|
d-0--0--0-0-0--0--0--0--0-0-0--0--0--0-0-0--0--0--0-0-0-----------------|


guitar 1
e-----------------------------------------------------------------------|
b-----------------------------------------------------------------------|
g-----------------------------------------------------------------------|
d-0--0--0-0-0--0--0--0--0-0-0--0--0--0-0-0--0--0--0-0-0-----------------|
a-0--0--0-0-0--0--0--0--0-0-0--0--0--0-0-0--0--0--0-0-0-----------------|
d-0--0--0-0-0--0--0--0--0-0-0--0--0--0-0-0--0--0--0-0-0-----------------|guitar 2
e-----------------------------------------------------------------------|
b-----------------------------------------------------------------------|
g-19-19-19-19-19-19-19-19-19-19-19-19-19-19-19-19-19-19-19--------------|
d-x--x--x--x--x--x--x--x--x--x--x--x--x--x--x--x--x--x--x---------------|
a-17-17-17-17-17-17-17-17-17-17-17-17-17-17-17-17-17-17-17--------------|
d-----------------------------------------------------------------------|
bass
g-----------------------------------------------------------------------|
d-----------------------------------------------------------------------|
a-----------------------------------------------------------------------|
d-0--0--0-0-0--0--0--0--0-0-0--0--0--0-0-0--0--0--0-0-0-----------------|

guitar 1
e-----------------------------------------------------------------------|
b-----------------------------------------------------------------------|
g-----------------------------------------------------------------------|
d-0--0--0-0-0--0--0--0--0-0-0--0--0--0-0-0--0--0--0-0-0-----------------|
a-0--0--0-0-0--0--0--0--0-0-0--0--0--0-0-0--0--0--0-0-0-----------------|
d-0--0--0-0-0--0--0--0--0-0-0--0--0--0-0-0--0--0--0-0-0-----------------|guitar 2
e-----------------------------------------------------------------------|
b-----------------------------------------------------------------------|
g-----------------------------------------------------------------------|
d-0--0--0-0-0--0--0--0--0-0-0--0--0--0-0-0--0--0--0-0-0-----------------|
a-0--0--0-0-0--0--0--0--0-0-0--0--0--0-0-0--0--0--0-0-0-----------------|
d-0--0--0-0-0--0--0--0--0-0-0--0--0--0-0-0--0--0--0-0-0-----------------|
bass
g-----------------------------------------------------------------------|
d-----------------------------------------------------------------------|
a-----------------------------------------------------------------------|
d-0--0--0-0-0--0--0--0--0-0-0--0--0--0-0-0--0--0--0-0-0-----------------|

end





Comments


Popular Gallows tabs & chords
Leechees Bass Tabs
Queensberry Rules Bass Tabs
The Riverbed Bass Tabs
Crucifucks Tabs
Gold Dust Tabs
I Dread The Night Tabs
In The Belly Of A Shark 3 Tabs
The Riverbed 1 Tabs
Will Someone Shoot That Fucking Snake Tabs
Will Someone Shoot That Fucking Snake 1 Tabs


Song lyrics



↑ Back to top | Tablatures and chords are parodies/interpretations of the original songs. You may use it for private study, scholarship, research or language learning purposes only
© 2014 AZChords.com Contact us | Privacy policy | DMCA | Add/correct tabs | Request tabs | Top 50 tabs