» » »

Gallows, In The Belly Of A Shark Bass tabs (ver.1)

Artists:  A B C D E F G H I J K L M N O P Q R S T U V W X Y Z # 

In The Belly Of A Shark Bass tabs (ver.1)

Gallows Tabs
Rating:
4/5 (5 votes)
In The Belly Of A Shark lessons Tabs too difficult? Try these video lessons and learn fast
                | /  slide up
| \  slide down
| h  hammer-on
| p  pull-off
| ~  vibrato
| +  harmonic
| x  Mute note

Comes in at about 9 secs

G|-----------------------------------------------------------------------|
D|-----------------------------------------------------------------------|
A|-------------------------------------------------3---------------------|
E|----------------------------------------1--1--1-----3------------------|


G|-----------------------------------------------------------------------|
D|-----------------------------------------------------------------------|
A|-----------------------------------------------------------------------|
E|-0-0-0-0-0-0-0-0-0-3p0-5b-0-0-0-0-0-0-0-0-0-3p0-5b---------------------|


G|-----------------------------------------------------------------------|
D|-----------------------------------------------------------------------|
A|-----------------------------------------------3-----------------------|
E|-0-0-0-0-0-0-0-0-0-3p0-5b-0-0-0-0-0-0-1--1--1-----3--------------------|

G|-----------------------------------------|
D|-----------------------------------------|
A|-----------------------------------------|
D|-0--------------3------------1-----------|


G|-----------------------------------------------------------------------|
D|-----------------------------------------------------------------------|
A|-----------------------------------------------------------------------|
E|-0----------------3--------------1----------------6-6------------------|

G|-----------------------------------------------------------------------|
D|-----------------------------------------------------------------------|
A|-----------------------------------------------------------------------|
E|-0---0--0--0--0--0--0-0-0-3--3-3-3-3-6--6-6-6-6------------------------|

G|-----------------------------------------------------------------------|
D|-----------------------------------------------------------------------|
A|-----------------------------------------------------------------------|
E|-0---0--0--0--0--0--0-0-0-3--3-3-3-3-6--6-6-6-6-8--8-8-8-8-------------|

G|-----------------------------------------------------------------------|
D|-----------------------------------------------------------------------|
A|----------------------------------------------------3------------------|
E|-0-------------1-------------3-------------1--1--1-----3---------------|

G|-----------------------------------------------------------------------|
D|-----------------------------------------------------------------------|
A|----------------------------------------------------3------------------|
E|-0-------------1--------------3------------1--1--1-----3---------------|

G|-----------------------------------------------------------------------|
D|-----------------------------------------------------------------------|
A|----------------------------------------------------3------------------|
E|-0-0-0-0-0-0-0-1-1-1-1-1-1-1-3-3-3-3-3-3-3-1--1--1-----3---------------|

G|-----------------------------------------------------------------------|
D|-----------------------------------------------------------------------|
A|----------------------------------------------------3------------------|
E|-0-0-0-0-0-0-0-1-1-1-1-1-1-1-3-3-3-3-3-3-3-1--1--1-----3---------------|


G|-----------------|
D|-----------------|
A|-----------------|
E|-1---------------|

G|-----------------------------------------------------------------------|
D|-----------------------------------------------------------------------|
A|-----------------------------------------------------------------------|
E|-0--0-0-0-0-0-0-0-0-0-0-0-3--3-3-3-3-3-3-3-3-3-3-3---------------------|

G|-----------------------------------------------------------------------|
D|-----------------------------------------------------------------------|
A|-----------------------------------------------3-----------------------|
E|-5-5-5-5-5-5-6--6-6-6-6-6-0-0-0-0-0-0-1--1--1-----3--------------------|

G|-----------------------------------------------------------------------|
D|-----------------------------------------------------------------------|
A|-----------------------------------------------------------------------|
E|-0--0-0-0-0-0-0-0-0-0-0-0-3--3-3-3-3-3-3-3-3-3-3-3---------------------|

G|-----------------------------------------------------------------------|
D|-----------------------------------------------------------------------|
A|-----------------------------------------------3-----------------------|
E|-5-5-5-5-5-5-6--6-6-6-6-6-0-0-0-0-0-0-1--1--1-----3--------------------|

G|-----------------------------------------------------------------------|
D|-----------------------------------------------------------------------|
A|-----------------------------------------------------------------------|
E|-0--0-0-0-0-0-0-0-0-0-0-0-3--3-3-3-3-3-3-3-3-3-3-3---------------------|

G|-----------------------------------------------------------------------|
D|-----------------------------------------------------------------------|
A|-----------------------------------------------3-----------------------|
E|-5-5-5-5-5-5-6--6-6-6-6-6-0-0-0-0-0-0-1--1--1-----3--------------------|

G|-----------------------------------------------------------------------|
D|-----------------------------------------------------------------------|
A|-----------------------------------------------------------------------|
E|-5-5-5-5-5-5-6--6-6-6-6-6-0-0-0-0-0-0----------------------------------|

G|-----------------------------------------------------------------------|
D|-----------------------------------------------------------------------|
A|----------3----------------3----------------3--------------------------|
E|-1--1--1-----3--0-1--1--1-----3--0-1--1--1-----3-----------------------|

G|-----------------------------------------------------------------------|
D|-----------------------------------------------------------------------|
A|-----------------------------------------------------------------------|
E|-0--0--0-0-0--0--0--0--0-0-0--0--0--0-0-0--0--0--0-0-0-----------------|


G|-----------------------------------------------------------------------|
D|-----------------------------------------------------------------------|
A|-----------------------------------------------------------------------|
E|-0--0--0-0-0--0--0--0--0-0-0--0--0--0-0-0--0--0--0-0-0-----------------|

G|-----------------------------------------------------------------------|
D|-----------------------------------------------------------------------|
A|-----------------------------------------------------------------------|
E|-0-0-0-0-0-0-0-0-0-0-0-0-0-0-0-0-3-3-3-3-3-3-3-3-3-3-3-3-3-3-3-3-------|

g|-----------------------------------------------------------------------|
d|-----------------------------------------------------------------------|
a|-3-3-3-3-3-3-3-3-6-6-6-6-6-6-6-6-5-5-5-5-5-5-5-5-5-5-5-5-5-5-5-5-------|
e|-----------------------------------------------------------------------|


g|-----------------------------------------------------------------------|
d|-----------------------------------------------------------------------|
a|-----------------------------------------------------------------------|
e|-0-0-0-0-0-0-0-0-0-0-0-0-0-0-0-0-3-3-3-3-3-3-3-3-3-3-3-3-3-3-3-3-------|

g|-----------------------------------------------------------------------|
d|-----------------------------------------------------------------------|
a|-3-3-3-3-3-3-3-3-6-6-6-6-6-6-6-6-5-5-5-5-5-5-5-5-5-5-5-5-5-5-5-5-------|
e|-----------------------------------------------------------------------|

g|-----------------------------------------------------------------------|
d|-----------------------------------------------------------------------|
a|-----------------------------------------------------------------------|
e|-0--0--0-0-0--0--0--0--0-0-0--0--0--0-0-0--0--0--0-0-0-----------------|

g|-----------------------------------------------------------------------|
d|-----------------------------------------------------------------------|
a|-----------------------------------------------------------------------|
e|-0--0--0-0-0--0--0--0--0-0-0--0--0--0-0-0--0--0--0-0-0-----------------|

g|-----------------------------------------------------------------------|
d|-----------------------------------------------------------------------|
a|-----------------------------------------------------------------------|
e|-0--0--0-0-0--0--0--0--0-0-0--0--0--0-0-0--0--0--0-0-0-----------------|
            

comments powered by Disqus
↑ Back to top | Gallows Bass for In The Belly Of A Shark. Lyrics for acoustic guitar and electric guitar. Tablatures and chords are parodies/interpretations of the original songs. You may use it for private study, scholarship, research or language learning purposes only