>
 >
Tsuki No Uta 1

Tsuki No Uta 1 Guitar Tabs

Gackt - Tsuki No Uta 1 chords, tabs, tablatures, lyrics

Guitar lessons | Add/correct | Request | Top 50 tabs Artists:  A B C D E F G H I J K L M N O P Q R S T U V W X Y Z 0-9

Tsuki No Uta 1 Guitar Tabs – Gackt

CD, Sheet music, Poster

Do you like Tsuki No Uta 1? Share with your friends now
TabsTabs v2
didnt tab this out

                                                                   Gackt
Lead Guitar



     Gackt - Tsuki no Uta                                    
     |------------3------------| |--3--|  |--3--|  |--3--|   
     E                    E  S S E  E  E  E  E  E  E  E  E   
E||---------------------------------------------------------|
B||--3--------------------L------3--1--0--0-----------------|
G||--0--------------------L------0--------4--2-----0--------|
D||--------------------------0-4----------4-----4--------4--|
A||--3--------------------L------5--------2-----------2-----|
E||---------------------------------------------------------|


  |---3---| |--3--|   |--3--|  |--3--|   
  E  E  S S E  E  E   E  E  E  E  E  E   
--3--L------5--3------8--7--L-----------|
--5--L------3-----3--10--8--L-----------|
-------------------------------7--------|
--------4-5--------------------------5--|
--3--L------5---------------------9-----|
----------------------0-----L-----------|


  |---3---| |--3--|  |--3--|  |--3--|     |---3---| |--3--|  |--3--|  |--3--|   
  E  E  S S E  E  E  E  E  E  E  E  E     E  E  S S E  E  E  E  E  E  E  E  E   
---------------------------------------|--3--L------5--3-----------------------|
--3--L------3--1--0--0-----------------|--5--L------3-----3--------------------|
--0--L------0--------4--2-----0--------|--0---------0-----------------0--------|
--------0-4----------4-----4--------4--|--------4-5----------------4-----4-----|
--3--L------5--------2-----------2-----|--3--L------5-----------2-----------2--|
---------------------------------------|---------------------0-----------------|


  |--3--|          |-3-| |-3-| |-3-| |-3-| |-3-| |-3-| |-3-| |-3-|  
  E  E  E  Q       S S S S S S S S S S S S S S S S S S S S S S S S  
----------------|------------0-----------------------0-------------|
----------------|--------------0-L---------------------0-L---------|
-----------0----|------0---0-------0-L-L-L-----0---0-------0-L-L-L-|
--------4-------|----4---4-------------------4---4-----------------|
-----2----------|--3---------------------L-3---------------------L-|
--0-------------|--------------------------------------------------|


  |-3-| |-3-| |-3-| |-3-| |-3-| |-3-| |-3-| |-3-|  
  S S S S S S S S S S S S S S S S S S S S S S S S  
--------------------------------------------------|
------------3-----------------------3-------------|
------0---0---0-L-------------0---0---0-L---------|
----4---4---------4-L-L-L---4---4---------4-L-L-L-|
--2---------------------L-2---------------------L-|
--------------------------------------------------|


  |-3-| |-3-| |-3-| |-3-| |-3-| |-3-| |-3-| |-3-|  
  S S S S S S S S S S S S S S S S S S S S S S S S  
------------0-----------------------0-------------|
--------------0-L---------------------0-L---------|
------0---0-------0-L-L-L-----0---0-------0-L-L-L-|
----4---4-------------------4---4-----------------|
--3---------------------L-3---------------------L-|
--------------------------------------------------|


  |-3-| |-3-| |-3-| |-3-| |-3-| |-3-| |-3-| |-3-|  
  S S S S S S S S S S S S S S S S S S S S S S S S  
--------------------------------------------------|
------------3-----------------------3-------------|
------0---0---0-L-------------0---0---0-L---------|
----4---4---------4-L-L-L---4---4---------4-L-L-L-|
--2---------------------L-2---------------------L-|
--------------------------------------------------|


  |-3-| |-3-| |-3-| |-3-| |-3-| |-3-| |-3-| |-3-|  
  S S S S S S S S S S S S S S S S S S S S S S S S  
------------0-----------------------0-------------|
--------------0-L---------------------0-L---------|
------0---0-------0-L-L-L-----0---0-------0-L-L-L-|
----4---4-------------------4---4-----------------|
--3---------------------L-3---------------------L-|
--------------------------------------------------|


  |-3-| |-3-| |-3-| |-3-| |-3-| |-3-| |-3-| |-3-|  
  S S S S S S S S S S S S S S S S S S S S S S S S  
--------------------------------------------------|
------------3-----------------------3-------------|
------0---0---0-L-------------0---0---0-L---------|
----4---4---------4-L-L-L---4---4---------4-L-L-L-|
--2---------------------L-2---------------------L-|
--------------------------------------------------|


  |-3-| |-3-| |-3-| |-3-| |-3-| |-3-| |-3-| |-3-|  
  S S S S S S S S S S S S S S S S S S S S S S S S  
------------0-----------------------0-------------|
--------------0-L---------------------0-L---------|
------0---0-------0-L-L-L-----0---0-------0-L-L-L-|
----4---4-------------------4---4-----------------|
--3---------------------L-3---------------------L-|
--------------------------------------------------|


  |-3-| |-3-| |-3-| |-3-| |-3-| |-3-| |-3-| |-3-|  
  S S S S S S S S S S S S S S S S S S S S S S S S  
--------------------------------------------------|
------------3-----------------------3-------------|
------0---0---0-L-------------0---0---0-L-----0-L-|
----4---4---------4-L-L-L---4---4---------4-L-----|
--2---------------------L-2---------------------L-|
--------------------------------------------------|


  |-3-| |-3-| |-3-| |-3-| |-3-| |-3-| |-3-| |-3-|  
  S S S S S S S S S S S S S S S S S S S S S S S S  
----------0-----------0-----------0-----------0---|
------------0-----------0-----------0-----------0-|
------0-----------0-----------0-----------0-------|
----4---4-------4---4-------4---4-------4---4-----|
--3---------L-5---------L-7---------L-5---------L-|
--------------------------------------------------|


                          ^         
  |-3-| |-3-| |-3-| |-3-|           
  S S S S S S S S S S S S H         
----------0-----------0---0--------|
------------0-----------0-0--------|
------0-----------0-------9--------|
----4---4-------4---4-----9--------|
--3---------L-5---------L-7--------|
-----------------------------------|


  ^    v ^ v ^    v ^ v ^    v ^ v             
  |-3| |-3-| |-3| |-3-| |-3| |-3-| |-3| |-3-|  
  E  S S S S E  S S S S E  S S S S E  S S S S  
--3--L-3-3-3-3--L-3-3-3-2--L-2-2-2-2--2-2-2-2-|
--0--L-0-0-0-0--L-0-0-0-3--L-3-3-3-3--3-3-3-3-|
--0--L-0-0-0-0--L-0-0-0-4--L-4-4-4-4--4-4-4-4-|
--0--L-0-0-0-0--L-0-0-0-4--L-4-4-4-4--4-4-4-4-|
--2--L-2-2-2-2--L-2-2-2-2--L-2-2-2-2--2-2-2-2-|
--3----3-3-3-3----3-3-3-----------------------|


  ^    v ^ v ^    v ^ v ^    v ^ v             
  |-3| |-3-| |-3| |-3-| |-3| |-3-| |-3| |-3-|  
  E  S S S S E  S S S S E  S S S S E  S S S S  
--0--L-0-0-0-0--L-0-0-0-0--L-0-0-0-0--0-0-0-0-|
--1--L-1-1-1-1--L-1-1-1-0--L-0-0-0-0--0-0-0-0-|
--2--L-2-2-2-2--L-2-2-2-0--L-0-0-0-0--0-0-0-0-|
--2--L-2-2-2-2--L-2-2-2-2--L-2-2-2-2--2-2-2-2-|
--0--L-0-0-0-0--L-0-0-0-2--L-2-2-2-2--2-2-2-2-|
------------------------0----0-0-0-0--0-0-0-0-|


  ^    v ^ v ^    v ^ v ^    v ^ v             
  |-3| |-3-| |-3| |-3-| |-3| |-3-| |-3| |-3-|  
  E  S S S S E  S S S S E  S S S S E  S S S S  
--3--L-3-3-3-3--L-3-3-3-2--L-2-2-2-2--2-2-2-2-|
--0--L-0-0-0-0--L-0-0-0-3--L-3-3-3-3--3-3-3-3-|
--0--L-0-0-0-0--L-0-0-0-4--L-4-4-4-4--4-4-4-4-|
--0--L-0-0-0-0--L-0-0-0-4--L-4-4-4-4--4-4-4-4-|
--2--L-2-2-2-2--L-2-2-2-2--L-2-2-2-2--2-2-2-2-|
--3----3-3-3-3----3-3-3-----------------------|


  ^    v ^ v ^    v ^ v ^    v ^ v             
  |-3| |-3-| |-3| |-3-| |-3| |-3-| |-3| |-3-|  
  E  S S S S E  S S S S E  S S S S E  S S S S  
--0--L-0-0-0-0--L-0-0-0-0--L-0-0-0-0--0-0-0-0-|
--1--L-1-1-1-1--L-1-1-1-0--L-0-0-0-0--0-0-0-0-|
--2--L-2-2-2-2--L-2-2-2-0--L-0-0-0-0--0-0-0-0-|
--2--L-2-2-2-2--L-2-2-2-2--L-2-2-2-2--2-2-2-2-|
--0--L-0-0-0-0--L-0-0-0-2--L-2-2-2-2--2-2-2-2-|
------------------------0----0-0-0-0--0-0-0-0-|


  ^    v ^ v ^    v ^ v ^    v ^ v             
  |-3| |-3-| |-3| |-3-| |-3| |-3-| |-3| |-3-|  
  E  S S S S E  S S S S E  S S S S E  S S S S  
--3--L-3-3-3-3--L-3-3-3-2--L-2-2-2-2--2-2-2-2-|
--0--L-0-0-0-0--L-0-0-0-3--L-3-3-3-3--3-3-3-3-|
--0--L-0-0-0-0--L-0-0-0-4--L-4-4-4-4--4-4-4-4-|
--0--L-0-0-0-0--L-0-0-0-4--L-4-4-4-4--4-4-4-4-|
--2--L-2-2-2-2--L-2-2-2-2--L-2-2-2-2--2-2-2-2-|
--3----3-3-3-3----3-3-3-----------------------|


  ^    v ^ v ^    v ^ v ^    v ^ v             
  |-3| |-3-| |-3| |-3-| |-3| |-3-| |-3| |-3-|  
  E  S S S S E  S S S S E  S S S S E  S S S S  
--0--L-0-0-0-0--L-0-0-0-0--L-0-0-0-0--0-0-0-0-|
--1--L-1-1-1-1--L-1-1-1-0--L-0-0-0-0--0-0-0-0-|
--2--L-2-2-2-2--L-2-2-2-0--L-0-0-0-0--0-0-0-0-|
--2--L-2-2-2-2--L-2-2-2-2--L-2-2-2-2--2-2-2-2-|
--0--L-0-0-0-0--L-0-0-0-2--L-2-2-2-2--2-2-2-2-|
------------------------0----0-0-0-0--0-0-0-0-|


  ^    v ^ v ^    v ^ v ^    v ^ v               ^         
  |-3| |-3-| |-3| |-3-| |-3| |-3-| |-3| |-3-|              
  E  S S S S E  S S S S E  S S S S E  S S S S    H         
--3--L-3-3-3-3--L-3-3-3-2--L-2-2-2-2--2-2-2-2-|--0--------|
--0--L-0-0-0-0--L-0-0-0-3--L-3-3-3-3--3-3-3-3-|--1--------|
--0--L-0-0-0-0--L-0-0-0-4--L-4-4-4-4--4-4-4-4-|--2--------|
--0--L-0-0-0-0--L-0-0-0-4--L-4-4-4-4--4-4-4-4-|--2--------|
--2--L-2-2-2-2--L-2-2-2-2--L-2-2-2-2--2-2-2-2-|--0--------|
--3----3-3-3-3----3-3-3-----------------------|-----------|


  |-3-| |-3-| |-3-| |-3-| |-3-| |-3-| |-3-| |-3-|  
  S S S S S S S S S S S S S S S S S S S S S S S S  
------------0-----------------------0-------------|
--------------0-L---------------------0-L---------|
------0---0-------0-L-L-L-----0---0-------0-L-L-L-|
--------4-------------------4---4-----------------|
--3---------------------L-3---------------------L-|
--------------------------------------------------|


  |-3-| |-3-| |-3-| |-3-| |-3-| |-3-| |-3-| |-3-|  
  S S S S S S S S S S S S S S S S S S S S S S S S  
--------------------------------------------------|
------------3-----------------------3-------------|
------0---0---0-L-------------0---0---0-L---------|
----4---4---------4-L-L-L---4---4---------4-L-L-L-|
--2---------------------L-2---------------------L-|
--------------------------------------------------|


  |-3-| |-3-| |-3-| |-3-| |-3-| |-3-| |-3-| |-3-|  
  S S S S S S S S S S S S S S S S S S S S S S S S  
------------0-----------------------0-------------|
--------------0-L---------------------0-L---------|
------0---0-------0-L-L-L-----0---0-------0-L-L-L-|
----4---4-------------------4---4-----------------|
--3---------------------L-3---------------------L-|
--------------------------------------------------|


  |-3-| |-3-| |-3-| |-3-| |-3-| |-3-| |-3-| |-3-|  
  S S S S S S S S S S S S S S S S S S S S S S S S  
--------------------------------------------------|
------------3-----------------------3-------------|
------0---0---0-L-------------0---0---0---0---0---|
----4---4---------4-L-L-L---4---4-------4---4---4-|
--2---------------------L-2---------------------L-|
--------------------------------------------------|


  |-3-| |-3-| |-3-| |-3-| |-3-| |-3-| |-3-| |-3-|    |-3-| |-3-| |-3-| |-3-|  
  S S S S S S S S S S S S S S S S S S S S S S S S    S S S S S S S S S S S S  
----------0-----------0-----------0-----------0---|----------0-----------0---|
------------0-----------0-----------0-----------0-|------------0-----------0-|
------0-----------0-----------0-----------0-------|------0-----------0-------|
----4---4-------4---4-------4---4-------4---4-----|----4---4-------4---4-----|
--3---------L-5---------L-7---------L-5---------L-|--3---------L-5---------L-|
--------------------------------------------------|--------------------------|


  |-3-| |-3-| |-3-| |-3-| |-3-| |-3-| |-3-| |-3-|  
  S S S S S S S S S S S S S S S S S S S S S S S S  
--------------------------------------------------|
----------3-----------3-----------3-----------3---|
------0-----0-----0-----0-----0-----0-----0-----0-|
----4---4-------4---4-------4---4-------4---4-----|
--3---------L-3---------L-2---------L-2---------L-|
--------------------------------------------------|


  |-3-| |-3-| |-3-| |-3-| |-3-| |-3-| |-3-| |-3-|  
  S S S S S S S S S S S S S S S S S S S S S S S S  
--------------------------------------------------|
----------3-----------3-----------3-----------3---|
------0-----0-----0-----0-----0-----0-----0-----0-|
----4---4-------4---4-------4---4-------4---4-----|
------------L-------------------------0---------L-|
--0---------L-2---------L-3---------L-------------|


  |-3-| |-3-| |-3-| |-3-| |-3-| |-3-| |-3-| |-3-|  
  S S S S S S S S S S S S S S S S S S S S S S S S  
--------------------------------------------------|
----------3-----------3-----------3-----------3---|
------0-----0-----0-----0-----0-----0-----0-----0-|
----4---4-------4---4-------4---4-------4---4-----|
--3---------L-3---------L-2---------L-2---------L-|
--------------------------------------------------|


                                      ^             
  |-3-| |-3-| |-3-| |-3-| |-3-| |-3-|               
  S S S S S S S S S S S S S S S S S S Q       Q     
--------------------------------------5----|--L----|
----------3-----------3-----------3---5----|--L----|
------0-----0-----0-----0-----0-----0-5----|--L----|
----4---4-------4---4-------4---4-----7----|--L----|
------------L-------------------------7----|-------|
--0---------L-2---------L-3---------L------|-------|


  |--3--|  |--3--|  |--3--|  |--3--|     |--3--|  |--3--|  |--3--|  |--3--|   
  E  E  E  E  E  E  E  E  E  E  E  E     E  E  E  E  E  E  E  E  E  E  E  E   
--------------------------------------|--------------------------------------|
-----5--------------------------------|-----5--------------------------3-----|
--4--------7--------------0--------0--|--4--------7--------------0--------0--|
--------7--------9-----4--------4-----|--------7-----7--------4--------------|
--------------9--------------5--------|-----------------9-----------5--------|
--------------------0-----------------|--------------------0-----------------|


  |--3--|  |--3--|  |--3--|  |--3--|   
  E  E  E  E  E  E  E  E  E  E  E  E   
--------------------------------------|
-----5--------------------------3-----|
--4--------7--------------0--------0--|
--------7--------9-----4--------------|
--------------9--------------5--------|
--------------------0-----------------|


  |--3--|  |--3--|  |-3-| |-3-| |-3-| |-3-|  
  E  E  E  E  E  E  S S S S S S S S S S S S  
--------------------------------------------|
--3--------3----------------3-----------3---|
--------0--------0------0-----2-----0-----2-|
-----4--------4-------4---4-------4---4-----|
--------------------------------5-----------|
--------------------0-----------------------|


  |-3-| |-3-| |-3-| |-3-| |-3-| |-3-| |-3-| |-3-|  
  S S S S S S S S S S S S S S S S S S S S S S S S  
--------------------------------------------------|
----------0-----------0-----------0-----------0---|
------0-----0-----0-----0-----0-----0-----0-----0-|
----4---4-------4---4-------4---4-------4---4-----|
--3-----------5-----------7-----------5-----------|
--------------------------------------------------|


                          ^         
  |-3-| |-3-| |-3-| |-3-|           
  S S S S S S S S S S S S H         
--------------------------0--------|
----------0-----------0---0--------|
------0-----0-----0-----0-5--------|
----4---4-------4---4-----7--------|
--3-----------5--------------------|
-----------------------------------|


  ^    v ^ v ^    v ^ v ^    v ^ v             
  |-3| |-3-| |-3| |-3-| |-3| |-3-| |-3| |-3-|  
  E  S S S S E  S S S S E  S S S S E  S S S S  
--3--L-3-3-3-3--L-3-3-3-2--L-2-2-2-2--2-2-2-2-|
--0--L-0-0-0-0--L-0-0-0-3--L-3-3-3-3--3-3-3-3-|
--0--L-0-0-0-0--L-0-0-0-4--L-4-4-4-4--4-4-4-4-|
--0--L-0-0-0-0--L-0-0-0-4--L-4-4-4-4--4-4-4-4-|
--2--L-2-2-2-2--L-2-2-2-2--L-2-2-2-2--2-2-2-2-|
--3----3-3-3-3----3-3-3-----------------------|


  ^    v ^ v ^    v ^ v ^    v ^ v             
  |-3| |-3-| |-3| |-3-| |-3| |-3-| |-3| |-3-|  
  E  S S S S E  S S S S E  S S S S E  S S S S  
--0--L-0-0-0-0--L-0-0-0-0--L-0-0-0-0--0-0-0-0-|
--1--L-1-1-1-1--L-1-1-1-0--L-0-0-0-0--0-0-0-0-|
--2--L-2-2-2-2--L-2-2-2-0--L-0-0-0-0--0-0-0-0-|
--2--L-2-2-2-2--L-2-2-2-2--L-2-2-2-2--2-2-2-2-|
--0--L-0-0-0-0--L-0-0-0-2--L-2-2-2-2--2-2-2-2-|
------------------------0----0-0-0-0--0-0-0-0-|


  ^    v ^ v ^    v ^ v ^    v ^ v             
  |-3| |-3-| |-3| |-3-| |-3| |-3-| |-3| |-3-|  
  E  S S S S E  S S S S E  S S S S E  S S S S  
--3--L-3-3-3-3--L-3-3-3-2--L-2-2-2-2--2-2-2-2-|
--0--L-0-0-0-0--L-0-0-0-3--L-3-3-3-3--3-3-3-3-|
--0--L-0-0-0-0--L-0-0-0-4--L-4-4-4-4--4-4-4-4-|
--0--L-0-0-0-0--L-0-0-0-4--L-4-4-4-4--4-4-4-4-|
--2--L-2-2-2-2--L-2-2-2-2--L-2-2-2-2--2-2-2-2-|
--3----3-3-3-3----3-3-3-----------------------|


  ^    v ^ v ^    v ^ v ^    v ^ v             
  |-3| |-3-| |-3| |-3-| |-3| |-3-| |-3| |-3-|  
  E  S S S S E  S S S S E  S S S S E  S S S S  
--0--L-0-0-0-0--L-0-0-0-0--L-0-0-0-0--0-0-0-0-|
--1--L-1-1-1-1--L-1-1-1-0--L-0-0-0-0--0-0-0-0-|
--2--L-2-2-2-2--L-2-2-2-0--L-0-0-0-0--0-0-0-0-|
--2--L-2-2-2-2--L-2-2-2-2--L-2-2-2-2--2-2-2-2-|
--0--L-0-0-0-0--L-0-0-0-2--L-2-2-2-2--2-2-2-2-|
------------------------0----0-0-0-0--0-0-0-0-|


  ^    v ^ v ^    v ^ v ^    v ^ v             
  |-3| |-3-| |-3| |-3-| |-3| |-3-| |-3| |-3-|  
  E  S S S S E  S S S S E  S S S S E  S S S S  
--3--L-3-3-3-3--L-3-3-3-2--L-2-2-2-2--2-2-2-2-|
--0--L-0-0-0-0--L-0-0-0-3--L-3-3-3-3--3-3-3-3-|
--0--L-0-0-0-0--L-0-0-0-4--L-4-4-4-4--4-4-4-4-|
--0--L-0-0-0-0--L-0-0-0-4--L-4-4-4-4--4-4-4-4-|
--2--L-2-2-2-2--L-2-2-2-2--L-2-2-2-2--2-2-2-2-|
--3----3-3-3-3----3-3-3-----------------------|


  ^    v ^ v ^    v ^ v ^    v ^ v             
  |-3| |-3-| |-3| |-3-| |-3| |-3-| |-3| |-3-|  
  E  S S S S E  S S S S E  S S S S E  S S S S  
--0--L-0-0-0-0--L-0-0-0-0--L-0-0-0-0--0-0-0-0-|
--1--L-1-1-1-1--L-1-1-1-0--L-0-0-0-0--0-0-0-0-|
--2--L-2-2-2-2--L-2-2-2-0--L-0-0-0-0--0-0-0-0-|
--2--L-2-2-2-2--L-2-2-2-2--L-2-2-2-2--2-2-2-2-|
--0--L-0-0-0-0--L-0-0-0-2--L-2-2-2-2--2-2-2-2-|
------------------------0----0-0-0-0--0-0-0-0-|


  ^    v ^ v ^    v ^ v ^    v ^ v               ^         
  |-3| |-3-| |-3| |-3-| |-3| |-3-| |-3| |-3-|              
  E  S S S S E  S S S S E  S S S S E  S S S S    H         
--3--L-3-3-3-3--L-3-3-3-2--L-2-2-2-2--2-2-2-2-|--0--------|
--0--L-0-0-0-0--L-0-0-0-3--L-3-3-3-3--3-3-3-3-|--1--------|
--0--L-0-0-0-0--L-0-0-0-4--L-4-4-4-4--4-4-4-4-|--2--------|
--0--L-0-0-0-0--L-0-0-0-4--L-4-4-4-4--4-4-4-4-|--2--------|
--2--L-2-2-2-2--L-2-2-2-2--L-2-2-2-2--2-2-2-2-|--0--------|
--3----3-3-3-3----3-3-3-----------------------|-----------|


  |---3---| |--3--|  |--3--|  |--3--|   
  E  E  S S E  E  E  E  E  E  E  E  E   
---------------------------------------|
--3--L------3--1--0--0-----------------|
--0--L------0--------4--2-----0--------|
--------0-4----------4-----4--------4--|
--3--L------5--------2-----------2-----|
---------------------------------------|


  |---3---| |--3--|   |--3--|  |--3--|   
  E  E  S S E  E  E   E  E  E  E  E  E   
--3--L------5--3------8--7--L-----------|
--5--L------3-----3--10--8--L-----------|
-------------------------------7--------|
--------4-5--------------------------5--|
--3--L------5---------------------9-----|
----------------------0-----L-----------|


  |---3---| |--3--|  |--3--|  |--3--|   
  E  E  S S E  E  E  E  E  E  E  E  E   
---------------------------------------|
--3--L------3--1--0--0-----------------|
--0--L------0--------4--2-----0--------|
--------0-4----------4-----4--------4--|
--3--L------5--------2-----------2-----|
---------------------------------------|


  |---3---| |--3--|  |-3-| |-3-| |-3-| |-3-|  
  E  E  S S E  E  E  S S S S S S S S S S S S  
--3--L------5--3-----------------------------|
--5--L------3-----3--------------------------|
--0---------0--------------------------------|
--------4-5--------------0-L---0-L---0-L---0-|
--3--L------5----------2-----2-----2-----2---|
---------------------0-----------------------|


  |-3-| |-3-| |-3-| |-3-| |-3-| |-3-| |-3-| |-3-|  
  S S S S S S S S S S S S S S S S S S S S S S S S  
--------------------------------------------------|
--------------------------------------------------|
--------------------------------------------------|
--L---0-L---0-L---0-L---0-L---0-L---0-L---0-L---0-|
----2-----2-----2-----2-----2-----2-----2-----2---|
--------------------------------------------------|


                                           ^                   
  |-3-| |-3-| |-3-| 3 3          3                         --  
  S S S S S S S S S S S H        S    Q    H.                  
-----------------------------------|-------0------------|----||
-----------------------------------|-------0------------|----||
-----------------------------------|-------0------------|----||
--L---0-L---0-L---0-L---0--------L-|-------2------------|----||
----2-----2-----2-----2------------|-------2------------|----||
-----------------------------------|-------0------------|----||




Duration Legend
---------------
W - whole
H - half
Q - quarter
E - 8th
S - 16th
T - 32nd
X - 64th
. - note dotted
|-n-|  - n-tuplets


Tablature Legend
----------------
L - tied note
x - dead note
g - grace note
(n) - ghost note
> - accentuded note
NH - natural harmonic
AH - artificial harmonic
TH - tapped harmonic
SH - semi harmonic
PH - pitch harmonic
h - hammer on
p - pull off
b - bend
br - bendRelease
pb - preBend
pbr - preBendRelease
brb - bendReleaseBend
\n/ - tremolo bar dip
\n - tremolo bar dive
-/n - tremolo bar Release up
/n\ - tremolo bar inverted dip
/n - tremolo bar return
-\n - tremolo bar Release down
S - shift slide
s - legato slide
/ -  slide into from below or out of upwards
\ -  slide into from above or out of downwards
~ - vibrato
W - wide vibrato
tr - trill
TP - tremolo picking
T - tapping
S - slap
P - pop
< - fade in
^ - brush up
v - brush down





Comments


Popular Gackt tabs & chords
Redemption Bass Tabs
12gatsu No Love Song Chords
Last Song Chords
Lust For Blood Chords
Longing Intro Tabs
Mizerable Intro Tabs
Vanilla Tabs
12gatsu No Love Song Ukulele
Lust For Blood Ukulele
Mizerable Ukulele


Song lyrics



↑ Back to top | Tablatures and chords are parodies/interpretations of the original songs. You may use it for private study, scholarship, research or language learning purposes only
© 2014 AZChords.com Contact us | Privacy policy | DMCA | Add/correct tabs | Request tabs | Top 50 tabs