» » »

Gackt, Tsuki No Uta Tabs (ver.1)

Artists:  A B C D E F G H I J K L M N O P Q R S T U V W X Y Z # 

Tsuki No Uta Tabs (ver.1)

Gackt Tabs
 Rating:
4.2/5 (5 votes)
Tsuki No Uta lessons Tabs too difficult? Try these video lessons and learn fast
                
This one is for all the people who want the chord part and can't afford to get guitar pro. 

standard tuning

intro:


e|---------------------------------0-----------0-----------2--3--------------------|
B|-3--------3---1--0-0-----------------------------3-------2--2---3----------------|
G|----—-0---------------2------0----------0----0-------5-----------------0---------|
D|----2-----0--------------0-----------4-----------------------------4-------------| 
A|-3---------------2---------------3-----------------------------------------------|
E|---------------------------------------------------------------------------------|

e|---------------------------------0-----------0-----------------------------------|
B|-3--------3---1--0-0-----------------------------3-------------------------------|
G|----—-0---------------2------0----------0----0-------5----------0----------0-----|
D|----2-----0--------------0-----------4------------------------4---4------4-------| 
A|-3---------------2---------------3--------------------------2------2---2---------|
E|----------------------------------------------------------0----------0-----------|

Verse:

e|----------------------------------------------------------|
B|-----------5--------------5---------------3---------------|
G|----—4---4---4------4---4---4-------0---0---0-------------|
D|---5---5----------5---5-----------4---4-------4-----------| 
A|-3--------------3---------------2-------------------------|
E|----------------------------------------------------------| x4



Prechorus:

e|-----------0-----------------0---------------0----------------0---------------0--|
B|-------0--------------0---------------0---------------0-----------------0--------|
G|----—9---9--------11-----11-------12-----12-------11------11----------9----9-----|
D|-10------------12--------------14--------------12-----------------10-------------| 
A|---------------------------------------------------------------------------------|
E|---------------------------------------------------------------------------------|

e|---------------0----0--------------|
B|--------0-----------0--------------|
G|----11-----11-------9--------------|
D|-12-----------------10-------------| 
A|-----------------------------------|
E|-----------------------------------|


for the chorus i only learned the chords so here:

Chorus:

G Bm Am Em x3

and then

G Bm Am

bridge:

Em D6 CM7 D6 CM7


and then repeat all the above for the rest of the song else for the rest of the song. now the chords.


CM7           Bm7
kagayaita masshiro na T shatsu
CM7              Bm7
mizu shibuki ni ukabu niji
CM7             Bm7
bonyari to mitsumeteru sora o
CM7              Bm7
ikutsu mono kaze ga asobu

CM7    D6         Em       D6        CM7   D6    CM7
nannimonai koto ga futari dake no shiawase datta

G                Bm7       Am7         Em7
dare yori mo fukaku kokoro made oborete
G                  Bm7      Am7           Em7
ima mo kono basho de kimi dake o mitsumete
  G             Bm7    Am7             Em7
nido to modoranai yume naraba kowash*te
G           Bm7        Am7
wasurarenakute mou ichido aitai

CM7      Bm7
shikirou kasanete
CM7               Bm7
kimi no kage, hiroiatsume

CM7   D6       Em      D6        CM7       
tokei no hari o tometa mama de machitsuzukeru


(then use the bridge twice here)

G   D6         Em    D6      CM7  Bm7  Em7 D6
nemurenai yoru mo, tameiki no asa mo
G    D6    Em            D  CM7  D6 Em D6 CM7 D6
kimi no daisuki na tsuki no u    ta o


(then use the bridge again)

G               Bm7        Am7          Em7
itsu kara ka tooku, karada made hanarete
G                 Bm7       Am7           Em7
ima wa kono basho ni boku dake o nokosh*te
  G            Bm7     Am7           Em7
zutto kawaranai futari da to shinjita
 G                 Bm7     Am7      
ano koro no you ni mou ichido, aish*ta

Outro:

e|---------------------------------0-----------0-----------2--3--------------------|
B|-3--------3---1--0-0-----------------------------3-------2--2---3----------------|
G|----—-0---------------2------0----------0----0-------5-----------------0---------|
D|----2-----0--------------0-----------4-----------------------------4-------------| 
A|-3---------------2---------------3-----------------------------------------------|
E|---------------------------------------------------------------------------------|

e|---------------------------------0-----------0-----------------------------------|
B|-3--------3---1--0-0-----------------------------3-------------------------------|
G|----—-0---------------2------0----------0----0-------5---------------------------|
D|----2-----0--------------0-----------4-------------------------------------------| 
A|-3---------------2---------------3--------------------------2--2--2---2---2--2---|
E|----------------------------------------------------------0--0---0--0---0--0-----|

 and end on an Em strum. and that's all.... enjoy
            
Submit corrections

comments powered by Disqus
↑ Back to top | Gackt Tabs for Tsuki No Uta. Lyrics for acoustic guitar and electric guitar. Tablatures and chords are parodies/interpretations of the original songs. You may use it for private study, scholarship, research or language learning purposes only