» » »

Gabe Bondoc, Suitcases And Travel Bags Tabs (ver.1)

Artists:  A B C D E F G H I J K L M N O P Q R S T U V W X Y Z # 

Suitcases And Travel Bags Tabs (ver.1)

Gabe Bondoc Tabs
Rating:
3/5 (3 votes)
Suitcases And Travel Bags lessons Tabs too difficult? Try these video lessons and learn fast
                ----------------------------------------------------------------------
          "Suitcases and Travel Bags" - Gabe Bondoc
----------------------------------------------------------------------

There are a bunch of ugly sounding tabs... so I got sick of it.
Here is my take on it... may not be what Gabe plays
but it sounds awesome.

Tuning: Half Step Down 
(some versions are in standard tuning, but tabs are the same)

     INTRO/VERSE              END OF VERSE
e|------------------------------------------|
B|--7---7---5---7--------------8---3-3------|
G|--7---6---6---5--------------7---4-4------|
D|--5---x---7---7--------------9---5-5------|
A|--7---x---5---6--------------7---x-x------|
E|------5--------------------------3-5------|

     CHORUS                             END OF CHORUS
e|-------------------------------------------------5--|
B|--7---7---8---3-5----5-------7--3-3--------------7--|
G|--6---5---7---4-6----6---5---8--4-4--------------6--|
D|--7---7---9---5-5----7---7---7--5-5--------------7--|
A|--5---6---7---x-x----x---x---9--x-x--------------5--|
E|--------------3-5----7---7------3-5-----------------|

     BRIDGE
e|-------------------------------------------------------------------|
B|------7---8---8--------7---8---8----------4--3---3---2--0---0---3--|
G|--7---6---7---7----7---6---7---7----7---5-5--4---3---2--2---0---4--|
D|--7---x---9---8----7---x---9---8----7---5-4--4---3---2--1---2---5--|
A|--x---x---7---7----x---x---7---7----x---x-5--x---x---x--2---2---x--|
E|--7---5------------7---5------------7---5----3---3---2------0---5--|
            

comments powered by Disqus
↑ Back to top | Gabe Bondoc Tabs for Suitcases And Travel Bags. Lyrics for acoustic guitar and electric guitar. Tablatures and chords are parodies/interpretations of the original songs. You may use it for private study, scholarship, research or language learning purposes only