» » »

Gabe Bondoc, Man In The Mirror Tabs (ver.2)

Artists:  A B C D E F G H I J K L M N O P Q R S T U V W X Y Z # 

Man In The Mirror Tabs (ver.2)

Gabe Bondoc Tabs
 Rating:
4.2/5 (5 votes)
Man In The Mirror lessons Tabs too difficult? Try these video lessons and learn fast
1
                Man in the Mirror
Michael Jackson


Intro:
e----------3--------3-------3--------------------------------------------|
B---3----------3--------1-------1----1--0------------1-------------------|
G------0----------0-------------0----0--0------------0h2p0----2----------|
D------------------------------------------------3-----------------------|
A---3----------2--------0------------------------------------------------|
E-------------------------------3-------------1--------------------------|

e-----------------------|
B----------1------1---1-|
G----------0h2p0--0---2-|
D-------3---------------|
A-----------------------|
E---1-------------------|

Verse:
e---------------3---------------------------------3----------3---------|
B---3-3---3-----1--0--1--0----------1-------------1----1---1---1---1---|
G---0-0---0--------0--0--0----------0h2p0---2-----2------2-------2-----|
D--------------------------------3----------------3--------------------|
A-3-3-3---2------------------------------------------------------------|
E------------3--3--3--3--3----1----------------------------------------|

e---------------3--------------------------------------------|
B---3-3---3-----1--0--1--0----------1-----------1--1--1--1---|
G---0-0---0--------0--0--0----------0h2p0---2---0--2--0--2---|
D--------------------------------3---------------------------|
A-3-3-3---2--------------------------------------------------|
E------------3--3--3--3--3----1------------------------------|

Pre-Chorus:
e------1--1--1----------------------------------------|
B------3--3--3-----1--1--1----1--1--1----00-0---------|
G------2--2--2-----0--0--0----2--2--2----00-0---------|
D---0--0--0--0-----0--0--0----3--3--3----00-0---------|
A-----------------------------------------------------|
E----------------3-3--3--3----1----------3------------|

e------1--1--1----------------------------------------|
B------3--3--3-----1--1--1----1--1--1----0-----0-0----|
G------2--2--2-----0--0--0----2--2--2----0-----0-0----|
D---0--0--0--0-----0--0--0----3--3--3----0-----0-0----|
A-----------------------------------------------------|
E----------------3-3--3--3----1----------3---3--------|

Chorus:
e---------------------------------------------|
B----1--1--1--------1--1---1------------------|
G----0--0--0--------2--2---2------------------|
D----2--2--2--------3--3---3------------------|
A-3--3--3--3-------------------------3p0------|
E----------------1--1--1---3-----3h5----------|

e---------------------------------------------|
B----1--1--1--------1--1---3------------------|
G----0--0--0--------2--2---4------------------|
D----2--2--2--------3--3---5------------------|
A-3--3--3--3-------------------------3p0------|
E----------------1--1--1---3-----3h5----------|

"...been any clearer"
e---------------------------|
B-----1--1--1------1--1--1--|
G-----0--0--0------2--2--2--|
D-----2--2--2------3--3--3--|
A--3--3--3--3---------------|
E---------------1--1--1--1--|

Post-Chorus:
"..If you want to make the world..."
e-------------0---------|
B----3--3--3----3-------|
G----3--3--3------3-----|
D----3--3--3--------3---|
A-----------------------|
E----3--3--3------------|

"...change"
Intro (Replay)

okayy so if you guys are very unsure on the rhythm just listen to this video. he plays 
slowly first and i caught onto it.
hope you do too !
GOOD LUCK!!!
            
Submit corrections

comments powered by Disqus
↑ Back to top | Gabe Bondoc Tabs for Man In The Mirror. Lyrics for acoustic guitar and electric guitar. 1 Tablatures and chords are parodies/interpretations of the original songs. You may use it for private study, scholarship, research or language learning purposes only