>
 >
Gentlemen Don't

Gentlemen Don't Guitar Tabs

Gabe Bondoc - Gentlemen Don't chords, tabs, tablatures, lyrics

Guitar lessons | Add/correct | Request | Top 50 tabs Artists:  A B C D E F G H I J K L M N O P Q R S T U V W X Y Z 0-9

Gentlemen Don't Guitar Tabs – Gabe Bondoc

CD, Sheet music, Poster

Do you like Gentlemen Don't? Share with your friends now
ChordsChords v2TabsTabs v2Tabs v3
-----------------------------------------------------------------------
                             Gentlemen Donít Ė Gabe Bondoc
-----------------------------------------------------------------------


Iíve seen a lot of different tabs for this song and none of them seemed quite right; I 
this one does the trick. Gabe plays it a half step down but itís really up to you, you 
play it in regular tuning just the same.

Intro
eb|--------------5----------------------- ---------------------5---|
Bb|------5-5h7-----5---5/7------------5 --------3-2-2h3--------5---|
Gb|----7-------------------7~-7-6-5h7---7 ------4-2----------4-----|
Db|--7---------7-----6~----7~-7-6-5 ----------4---2----------------|
Ab|--------5~------4-------x--x-x-x --------------x-----/4---------|
Eb|------------------------7~-7-6-5 --------3-----2----------------|


Verse
eb|------5----5------------------------------------------------5---|
Bb|---5--5h7--7--5--7--7--7-----6--5--5-----3----2--2h3--------5---|
Gb|--7---6----6--6-----7--7-----6--5--5-----4----2-----------4-----|
Db|-7----7----7--5-----7--7-----6--5--4---4------2-----------------|
Ab|------5----5-----------------------5----------------/4----------|
Eb|--------------5-----7--------6--5-----3--------2----------------|


Chorus
eb|-------------------------------------------------------------|
Bb|-7--7------7--7-----5-----5-5----1-1------1-1-----7----------|
Gb|-7--7------7--7-----6-----6-6----2-2------2-2-----8--9--11---|
Db|-5--5------5--5-----5-----5-5----2-2------2-2-----7--7ó-9----|
Ab|-7-------7---------------------------------------------------|
Eb|------x---------x---5-x-5-----x--2---x--2---2--x--7--9--11---|

eb|-----------------------5---|
Bb|--8-8--7h8-8---------5-----|
Gb|--7-7--7---7-------7-------|
Db|--9-9--9---9-----7---------|
Ab|--7----7-------------------|
Eb|---------------5-----------|


Bridge
Tip: Unless your fingers can do something that no one elseís can, you should use your 
on the base note for the last chord of the bridge
(E string/ 5th fret)
eb|-------------------------------------|
Bb|--3-3---3---3-3----3---3-3----3--3---|
Gb|--4-4---4---3-3----3---0-0----0--3---|
Db|--4-4---4---2-2----2---0-0----0--0---|
Ab|-------------------------------------|
Eb|--3---x-3-x-2---x--2-x-0---x--0--2---|

eb|-----------------------------------------5---|
Bb|--3-3---3---3-3----3---3-3----3--------3-----|
Gb|--4-4---4---3-3----3---0-0----0------4-------|
Db|--4-4---4---2-2----2---2-2----2----5---------|
Ab|---------------------------------------------|
Eb|--3---x-3-x-2---x--2-x-0---x--0--5-----------|

There you have it! Now go serenade that girl or just slow jam on your own. Feedback very welcome.

Cheers,
    Joel

| /  slide up
| \  slide down
| h  hammer-on
| p  pull-off
| ~  vibrato
| +  harmonic
| x  Mute note or Slap
=======================================================================





Comments


Popular Gabe Bondoc tabs & chords
Better Yet Chords
Thinking About You Chords
Is This Love Tabs
She Is 2 Tabs
Strip Tabs
Stronger Than 4 Tabs
Suitcases And Travel Bags 1 Tabs
Summertime Tabs
Temporary Tabs
We Match Tabs


Song lyrics



↑ Back to top | Tablatures and chords are parodies/interpretations of the original songs. You may use it for private study, scholarship, research or language learning purposes only
© 2014 AZChords.com Contact us | Privacy policy | DMCA | Add/correct tabs | Request tabs | Top 50 tabs