» » »

Futureheads, Struck Dumb Tabs (ver.2)

Artists:  A B C D E F G H I J K L M N O P Q R S T U V W X Y Z # 

Struck Dumb Tabs (ver.2)

Futureheads Tabs
 Rating:
4/5 (4 votes)
Struck Dumb lessons Tabs too difficult? Try these video lessons and learn fast
                -------------------------------------------------------------------------------
                             STRUCK DUMB – The Futureheads
-------------------------------------------------------------------------------

Tuning: standard

INTRO- There are two guitars playing the intro, but I’ve modified it slightly so 
that you can both play the chords and the melody on top of it together.

e|---------------------------------------------------------------------------|
B|---------------------------------------------------------------------------|
G|---11-11-11--11-10-8---8-8-6---6h8-----3-3-2---2h4-----6-6-6---6h8---------|
D|---11-11-11------------8-8---8-----8---3-3---3-----3---6-6---8-----8p6-----|   X 2
A|---9--9--9-------------6-6-------------1-1-------------4-4-----------------|
E|---------------------------------------------------------------------------|

VERSE-

e|---------------------------------------------------------------------------|
B|---------------------------------------------------------------------------|
G|---11-11-11-----8-8-8-8-8-8-8-8---3-3-3-3-3-3-3-3---6-6-6-6-6-6-6-6--------|
D|---11-11-11-----8-8-8-8-8-8-8-8---3-3-3-3-3-3-3-3---6-6-6-6-6-6-6-6--------|  X 2
A|---9--9--9------6-6-6-6-6-6-6-6---1-1-1-1-1-1-1-1---4-4-4-4-4-4-4-4--------|
E|---------------------------------------------------------------------------|

PRE-CHORUS-

e|---------------------------------------------------------------------------|
B|---------------------------------------------------------------------------|
G|---3-3/4-4\3-3---3-3/4-4\3-3---3-3/4-4\3-3---3-3/4-4\3-3-------------------|
D|---3-3/4-4\3-3---3-3/4-4\3-3---3-3/4-4\3-3---3-3/4-4\3-3-------------------|
A|---1-1/2-2\1-1---1-1/2-2\1-1---1-1/2-2\1-1---1-1/2-2\1-1-------------------|
E|---------------------------------------------------------------------------|

e|---------------------------------------------------------------------------|
B|---------------------------------------------------------------------------|
G|---4-4-4-4\3-3---4-4-4-4\3-3---3/6-----------3-3/4-4\3-3-------------------|
D|---4-4-4-4\3-3---4-4-4-4\3-3---3/6-______----3-3/4-4\3-3-------------------|
A|---2-2-2-2\1-1---2-2-2-2\1-1---1/4-----------1-1/2-2\1-1-------------------|
E|---------------------------------------------------------------------------|

CHORUS-

e|-----------------------------------------------------------------------------------|
B|-----------------------------------------------------------------------------------|
G|---11-11-11-11-11-11-11-11---8-8-8-8-8-8-8-8---3-3-3-3-3-3-3-3---6-6-6-6-6-6-6-6---|
D|---11-11-11-11-11-11-11-11---8-8-8-8-8-8-8-8---3-3-3-3-3-3-3-3---6-6-6-6-6-6-6-6---|  X 2
A|---9--9--9--9--9--9--9--9----6-6-6-6-6-6-6-6---1-1-1-1-1-1-1-1---4-4-4-4-4-4-4-4---|
E|-----------------------------------------------------------------------------------|

e|---------------------------------------------------------------------------|
B|---------------------------------------------------------------------------|
G|---6-6-6-6-6-6-6-6-6-6-6-6-6-6-6-6-6-6-6-6-6-6-6-6-------------------------|
D|---6-6-6-6-6-6-6-6-6-6-6-6-6-6-6-6-6-6-6-6-6-6-6-6-------------------------|
A|---4-4-4-4-4-4-4-4-4-4-4-4-4-4-4-4-4-4-4-4-4-4-4-4-------------------------|
E|---------------------------------------------------------------------------|

OUTRO, played during third time of chorus

e|---------------------------------------------------------------------------|
B|---------------------------------------------------------------------------|
G|---11-11-11--11-10-8---8-8-6---6h8-----3-3-2---2h4-----6-6-6---6h8---------|
D|---11-11-11------------8-8---8-----8---3-3---3-----3---6-6---8-----8p6-----|   
A|---9--9--9-------------6-6-------------1-1-------------4-4-----------------|
E|---------------------------------------------------------------------------|

e|---------------------------------------------------------------------------|
B|------------------------------------10-11----------------------------------|
G|---11-11-11--11-10-8---8-8-6---6h8--8--------------------11-11-11----------|
D|---11-11-11------------8-8---8---------------------------11-11-11----------| 
A|---9--9--9-------------6-6-------------------------------9--9--9-----------|
E|---------------------------------------------------------------------------|


************************************

| /   slide up
| \   slide down
| h   hammer-on
| p   pull-off
| ~   vibrato
| +   harmonic
| x   Mute note
| b   Bend
| pb  Pre-bend
| br  Bend release
| pbr Pre-bend release
| brb Bend release bend

************************************
Intro x2       
Verse x2    
Pre-chorus     
Chorus    
Intro      
Verse x4       
Pre-chorus     
Chorus x2
Outro
            
Submit corrections

comments powered by Disqus
↑ Back to top | Futureheads Tabs for Struck Dumb. Lyrics for acoustic guitar and electric guitar. Tablatures and chords are parodies/interpretations of the original songs. You may use it for private study, scholarship, research or language learning purposes only