» » »

Struck Dumb Tabs (ver.1)

Artists:  A B C D E F G H I J K L M N O P Q R S T U V W X Y Z # 

Struck Dumb Tabs (ver.1)

Futureheads
Rating:
0/5 (0 votes)

Hard to play? Try these video lessons and learn fast.
                -------------------------------------------------------------------------------
                             Struck Dumb - The Futureheads
-------------------------------------------------------------------------------

Tuning: Standard EADGBe

This song actually has two guitar parts, this is my version that covers both
parts, so it may sound slightly different in some places, but if you want to
play the song with just one guitar, this is how it's done!

Intro/Riff

e|---------------------------------------------------------------------------|
B|---------------------------------------------------------------------------|
G|--10-10-10----10-9-7~~---7-7----7---5h7-------2-2----7---5h7---------------|
D|--10-10-10---------------7-7------7-----7~~---2-2------7-----7~~-----------|
A|--8--8--8----------------5-5------------------0-0--------------------------|
E|---------------------------------------------------------------------------|

e|---------------------------------------------------------------------------|
B|---------------------------------------------------------------------------|
G|---------------------------------------------------------------------------|
D|--5-5----7---5h7-----------------------------------------------------------|
A|--5-5------7-----7-5~~------------------------------------------------------|
E|--3-3----------------------------------------------------------------------|

Verse

e|---------------------------------------------------------------------------|
B|---------------------------------------------------------------------------|
G|--10-10-10----7~-7-7-7-7-7-7----2~-2-2-2-2-2-2----5~-5-5-5-5-5-5-----------|
D|--10-10-10----7~-7-7-7-7-7-7----2~-2-2-2-2-2-2----5~-5-5-5-5-5-5-----------|
A|--8--8--8-----5~-5-5-5-5-5-5----0~-0-0-0-0-0-0----3~-3-3-3-3-3-3-----------|
E|---------------------------------------------------------------------------|

Prechorus

e|---------------------------------------------------------------------------|
B|---------------------------------------------------------------------------|
G|---------------------------------------------------------------------------|
D|--7-7/8-8\7-7----7-7-7/8-8\7-7----7-7-7/8-8\7-7----7-7-7/8-8\7-7-----------|
A|--7-7/8-8\7-7----7-7-7/8-8\7-7----7-7-7/8-8\7-7----7-7-7/8-8\7-7-----------|
E|--5-5/6-6\5-5----5-5-5/6-6\5-5----5-5-5/6-6\5-5----5-5-5/6-6\5-5-----------|

Chorus

e|---------------------------------------------------------------------------|
B|---------------------------------------------------------------------------|
G|--10~-10-10-10-10-10-10----7~-7-7-7-7-7-7----2~-2-2-2-2-2-2-2-2-2-2/5~-5-5-|
D|--10~-10-10-10-10-10-10----7~-7-7-7-7-7-7----2~-2-2-2-2-2-2-2-2-2-2/5~-5-5-|
A|--8~~-8--8--8--8--8--8-----5~-5-5-5-5-5-5----0~-0-0-0-0-0-0-0-0-0-0/3~-3-3-|
E|---------------------------------------------------------------------------|

e|---------------------------------------------------------------------------|
B|---------------------------------------------------------------------------|
G|--10~-10-10-10-10-10-10----7~-7-7-7-7-7-7----2~-2-2-2--2-------------------|
D|--10~-10-10-10-10-10-10----7~-7-7-7-7-7-7----2~-2-2-2--2-------------------|
A|--8~~-8--8--8--8--8--8-----5~-5-5-5-5-5-5----0~-0-0-0--0-------------------|
E|---------------------------------------------------------------------------|

e|---------------------------------------------------------------------------|
B|---------------------------------------------------------------------------|
G|--5~-5-5-5-5-5-5--5~-5-5-5-5-5-5--5~-5-5-5-5-5-5--5~-5-5-5-5-5-5-----------|
D|--5~-5-5-5-5-5-5--5~-5-5-5-5-5-5--5~-5-5-5-5-5-5--5~-5-5-5-5-5-5-----------|
A|--3~-3-3-3-3-3-3--3~-3-3-3-3-3-3--3~-3-3-3-3-3-3--3~-3-3-3-3-3-3-----------|
E|---------------------------------------------------------------------------|


Chorus (alt.)

e|---------------------------------------------------------------------------|
B|---------------------------------------------------------------------------|
G|--10~-10-10-10-10-10-10----7~-7-7-7-7-7-7----2~-2-2-2-2-2-2-2-2-2-2/5~-5-5-|
D|--10~-10-10-10-10-10-10----7~-7-7-7-7-7-7----2~-2-2-2-2-2-2-2-2-2-2/5~-5-5-|
A|--8~~-8--8--8--8--8--8-----5~-5-5-5-5-5-5----0~-0-0-0-0-0-0-0-0-0-0/3~-3-3-|
E|---------------------------------------------------------------------------|

e|---------------------------------------------------------------------------|
B|---------------------------------------------------------------------------|
G|-------------------------------------------------------------------7--7----|
D|-------------------------------------------------------------------7--7----|
A|-------------------------------------------------------------------5--5----|
E|---------------------------------------------------------------------------|

e|---------------------------------------------------------------------------|
B|---------------------------------------------------------------------------|
G|--5~-5-5-5-5-5-5--5~-5-5-5-5-5-5--5~-5-5-5-5-5-5--5~-5-5-5-5-5-5-----------|
D|--5~-5-5-5-5-5-5--5~-5-5-5-5-5-5--5~-5-5-5-5-5-5--5~-5-5-5-5-5-5-----------|
A|--3~-3-3-3-3-3-3--3~-3-3-3-3-3-3--3~-3-3-3-3-3-3--3~-3-3-3-3-3-3-----------|
E|---------------------------------------------------------------------------|

Ending

e|---------------------------------------------------------------------------|
B|---------------------------------------------------------------------------|
G|--10-10-10----10-9-7~~---7-7----7---5h7-------2-2----7---5h7---------------|
D|--10-10-10---------------7-7------7-----7~~---2-2------7-----7~~-----------|
A|--8--8--8----------------5-5------------------0-0--------------------------|
E|---------------------------------------------------------------------------|

e|---------------------------------------------------------------------------|
B|------------------------------------------------------------/9-10-10-10-10-|
G|---------5p2~-5p2~~----10-10-10----10-9-7----7-7----7---5h7----------------|
D|--5-5------------------10-10-10--------------7-7------7--------------------|
A|--5-5------------------8--8--8---------------5-5---------------------------|
E|--3-3----------------------------------------------------------------------|

e|---------------------------------------------------------------------------|
B|---------------------------------------------------------------------------|
G|--5~-5-5-5-5-5-5--5~-5-5-5-5-5-5--5~-5-5-5-5-5-5--5~-5-5-5-5-5-5-----------|
D|--5~-5-5-5-5-5-5--5~-5-5-5-5-5-5--5~-5-5-5-5-5-5--5~-5-5-5-5-5-5-----------|
A|--3~-3-3-3-3-3-3--3~-3-3-3-3-3-3--3~-3-3-3-3-3-3--3~-3-3-3-3-3-3-----------|
E|---------------------------------------------------------------------------|

e|---------------------------------------------------------------------------|
B|---------------------------------------------------------------------------|
G|--10-9-7~~~~-7---5h7-------7---5h7-------7---5h7---------------------------|
D|---------------7-----7~~~~---7-----7~~~~---7-----7~~~~---------------------|
A|---------------------------------------------------------------------------|
E|---------------------------------------------------------------------------|

e|---------------------------------------------------------------------------|
B|---------------------/9-10-10-10-10-10-10----10~~~~------------------------|
G|--10-9-7~~~~-7---5h7-------------------------10~~~~------------------------|
D|---------------7-----------------------------8~~~~~------------------------|
A|---------------------------------------------------------------------------|
E|---------------------------------------------------------------------------|

Order
Intro/Riff x2
Verse x2
Prechorus x2
Chorus x1
Intro/Riff x1
Verse x4
Prechorus x2
Chorus x1
Chorus (alt.) x1
Ending x1
************************************

| /   slide up
| \   slide down
| h   hammer-on
| p   pull-off
| ~   vibrato
| +   harmonic
| x   Mute note
| b   Bend
| pb  Pre-bend
| br  Bend release
| pbr Pre-bend release
| brb Bend release bend

************************************
            
Hard to play? Try these video lessons and learn fast. | Correct




comments powered by Disqus
↑ Back to top | Tablatures and chords are parodies/interpretations of the original songs. You may use it for private study, scholarship, research or language learning purposes only