>
 >
Decent Days And Nights

Decent Days And Nights Bass Tabs

Futureheads - Decent Days And Nights chords, tabs, tablatures, lyrics

Guitar lessons | Add/correct | Request | Top 50 tabs Artists:  A B C D E F G H I J K L M N O P Q R S T U V W X Y Z 0-9

Decent Days And Nights Bass Tabs – Futureheads

CD, Sheet music, Poster

Do you like Decent Days And Nights? Share with your friends now
Bass TabsBass Tabs v2ChordsTabsTabs v2Tabs v3Ukulele

G---------------------------|
D---------------------------|
A---------------------------|          x2
E--2---0----5---0-----------|

G-----------------|
D-----------------|
A---4--------7----|          x2
E-2----0---5----0-|

G------------------|
D------------------|
A------------------|            x1
E-99999---77777----|

G----------------------------------------------------------------------|
D----------------------------------------------------------------------|
A----77777----7-77-----77777----7-77----77777---7-77----77777----7-7-7-|         x1
E--0-------0---------0--------0---------0-------0-------0-------0------|

G-----------------|
D-----------------|
A---4--------7----|          x2
E-2----0---5----0-|

G---------------------------------------------------------------------|
D---------------------------------------------------------------------|
A-77777----7-77-----77777----7-77----77777---7-77----77777----7-------|      x1
E-0-------0---------0--------0---------0-------0-------0--------------|

G-------------------|
D-------------------|
A-------------------|                    x1
E--99999---77777----|

G--------------|
D--------------|
A-----77777----|               x1
E---0-------0--|


G-------------------|
D-------------------|
A-------------------|           x1
E--99999---77777----|


G---------------------------------|
D---------------------------------|
A--77777---7-77----77777----7-7-7-|              x1
E--0-------0-------0-------0------|


G------------------|
D------------------|
A----4--------7----|                 x2
E--2----0---5----0-|


G -------------------------------------------------------------|
D -------------------------------------------------------------|
A ----77777----7-77-----77777----7-77----77777---7-77----77777-|      x1
E --0-------0---------0--------0---------0-------0-------0-----|

G-------------------|
D ------------------|
A ------------------|             x1
E -99999---77777----|

G--------------|
D--------------|
A-----77777----|         x1
E--------------|

G---------------------------------------------------------|
D---------------------------------------------------------|
A---------------------------------------------------------|        x1
E-77777 77777 77777 77777 77777 77777 77777 77777

G --------------------------------|
D --------------------------------|
A -77777---7-77----77777----7-7-7-|        x1
E -0-------0-------0-------0------|

G-----------------|
D-----------------|
A---4--------7----|        x2
E-2----0---5----0-|

G---------------------------|
D---------------------------|
A---------------------------|          x4
E--2---0----5---0-----------|

G------------------|
D------------------|
A----4--------7----|          x1
E-2----0---5----0--|

G------------------|
D------------------|
A------------------|           x1
E-99999---77777----|

G--------------------------------|
D--------------------------------|
A-77777---7-77----77777----7-----|    x1
E-0-------0-------0-------0------|





Comments


Popular Futureheads tabs & chords
Decent Days And Nights 1 Bass Tabs
Man Ray Bass Tabs
Remote Control Bass Tabs
First Day Chords
Heartbeat Song 1 Chords
Hounds Of Love 1 Chords
Decent Days And Nights Tabs
Everythings Changing Today Tabs
Struck Dumb Tabs
Struck Dumb 1 Tabs


Song lyrics



↑ Back to top | Tablatures and chords are parodies/interpretations of the original songs. You may use it for private study, scholarship, research or language learning purposes only
© 2014 AZChords.com Contact us | Privacy policy | DMCA | Add/correct tabs | Request tabs | Top 50 tabs