>
 >
Decent Days And Nights 1

Decent Days And Nights 1 Guitar Tabs

Futureheads - Decent Days And Nights 1 chords, tabs, tablatures, lyrics

Guitar lessons | Add/correct | Request | Top 50 tabs Artists:  A B C D E F G H I J K L M N O P Q R S T U V W X Y Z 0-9

Decent Days And Nights 1 Guitar Tabs – Futureheads

CD, Sheet music, Poster

Do you like Decent Days And Nights 1? Share with your friends now
Bass TabsBass Tabs v2ChordsTabsTabs v2Tabs v3Ukulele
                         /-----------------------\
                        /    THE FUTUREHEADS      \
                       /---------------------------\
                       |   Decent Days And Nights  |
                       \---------------------------/
                         \-----------------------/

Hi , Well I believe this is 100% better than the otehr tabs so USE THIS ONE.
(IT MAY NOT BE 100% ACCURATE THOUGH)

*Key*
------
LR - LET RING
x  - Pause (for beat)
X - Palm Mute
\/ - Slide
H  - Hammer On
P  - Pull Off
b  - bend

|----------|
|  NOTES   |
|----------|

* I have Written down  it all as power chords , of course you can change these
into Bar Chords for better quality chords, ive used power chords so its easier.

* not sure about tuning , but i thinks it's standard (EBGDAE)

* im sure that fourth chord on the intro isnt E , so i used my prefered chord

* Ive tired to put teh tab in sync with the lyrics , listen to the song (CD VERSION/MP3)
for timing

* This Is The CD/STANDARD MP3 Version


Intro

E|----------------------------------------------------------------||
B|----------------------------------------------------------------||
G|--6---------------------4---------------------------------------||
D|--6---------------------4--------7-----------------------6------||
A|--4---------------------2--------7-----------------------6------||
E|---------------------------------5-----------------------4------||
  This is a brand new problem      A problem without any clues


E|----------------------------------------------------------------||
B|----------------------------------------------------------------||
G|---6---------------4--------------------------------------------||
D|---6---------------4---------7-----------------6----------------||
A|---4---------------2---------7-----------------6----------------||
E|-----------------------------5-----------------4----------------||
    If you know the clues     it's easy to get through

E|-----------------------------------------------------------------------------------------|||
B|-----------------------------------------------------------------------------------------|||
G|--9----9---9-----------------------------------------------------------------------------|||
D|--9----9---9---9----9---9---11---11-11---9----9--9---------------------------------------|||
A|--7----7---7---9----9---9---11---11-11---9----9--9---------------------------------------|||
E|---------------7----7---9----9----9--9---7----7--7---------------------------------------|||
  But you look confused and you dont know what to do
  Its hard to get an answer when you havent got a clue

E|-----------------------------------------------------------------||
B|-----------------------------------------------------------------||
G|---6--6--6--6--6----4--4--4--4-----------------------------------||
D|---6--6--6--6--6----4--4--4--4--6--------------------------------||
A|---4--4--4--4--4----2--2--2--2--6--------------------------------||
E|--------------------------------4--------------------------------||
  If you work it out tell me what you find


Guitar Fill

E|------------------------xxxx------------------------------------||
B|------------------------xxxx------------------------------------||
G|----9-9-9-9-9---9--9----xxxx------------------------------------||
D|----9-9-9-9-9---9--9----xxxx------------------------------------||
A|----7-7-7-7-7---7--7----xxxx------------------------------------||
E|--0-----------0------0--xxxx------------------------------------|| x 1

E|------------------------xxxx------------------------------------||
B|------------------------xxxx------------------------------------||
G|----9-9-9-9-9---9--9----xxxx------------------------------------||
D|----9-9-9-9-9---9--9----xxxx------------------------------------||
A|----7-7-7-7-7---7--7----xxxx------------------------------------||
E|--------------0---------xxxx------------------------------------|| x3


Verse

  LR
E|----------------------------------------------------------------||
B|----------------------------------------------------------------||
G|----------------------------------------------------------------||
D|----------------------------------------------------------------||
A|----------------------------------------------------------------||
E|-0--------------------------------------------------------------||
    if the least you can do is show some restraint


E|----------------------------------------------------------------||
B|----------------------------------------------------------------||
G|----------------------------------------------------------------||
D|-----6-----------2---------7------------2-----------------------||
A|-----6-----------2---------7------------2-----------------------||
E|-----4-----------0---------5------------0-----------------------||
  Then the most you can do is get carried away

E|------------------------------------------------------------------||
B|------------------------------------------------------------------||
G|------------------------------------------------------------------||
D|--------------------6------------2--------7-------------2---------||
A|--------------------6------------2--------7-------------2---------||
E|--------------------4------------0--------5-------------0---------||
   i can see that you look confused and you dont know what to do


Chorus

E|------------------------xxxx------------------------------------||
B|------------------------xxxx------------------------------------||
G|----9-9-9-9-9---9--9----xxxx------------------------------------||
D|----9-9-9-9-9---9--9----xxxx------------------------------------||
A|----7-7-7-7-7---7--7----xxxx------------------------------------||
E|--0-----------0-------0-xxxx------------------------------------||
                        Say

E|------------------------xxxx------------------------------------||
B|------------------------xxxx------------------------------------||
G|----9-9-9-9-9---9--9----xxxx------------------------------------||
D|----9-9-9-9-9---9--9----xxxx------------------------------------||
A|----7-7-7-7-7---7--7----xxxx------------------------------------||
E|--------------0-------0-xxxx------------------------------------||
                        What You See
                        What You Like


E|-----------------------------------------------------------------||
B|-----------------------------------------------------------------||
G|---6--6--6--6--6----4--4--4--4-----------------------------------||
D|---6--6--6--6--6----4--4--4--4--6--------------------------------||
A|---4--4--4--4--4----2--2--2--2--6--------------------------------||
E|--------------------------------4--------------------------------||
  If you work it out tell me what you find

E|--------------------------------------------------------------------------||
B|--------------------------------------------------------------------------||
G|----9-9-9-9-9---9--9----6---6---6---6---6---4--4---4---4------------------||
D|----9-9-9-9-9---9--9----6---6---6---6---6---4--4---4---4---6--------------||
A|----7-7-7-7-7---7--7----4---4---4---4---4---2--2---2---2---6--------------||
E|--------------0--------------------------------------------4--------------||
                      We can have a few decent days and nights


  Guitar Fill
E|------------------------xxxx------------------------------------||
B|------------------------xxxx------------------------------------||
G|----9-9-9-9-9---9--9----xxxx------------------------------------||
D|----9-9-9-9-9---9--9----xxxx------------------------------------||
A|----7-7-7-7-7---7--7----xxxx------------------------------------||
E|--0-----------0------0--xxxx------------------------------------||

E|----------------------------------------------------------------||
B|----------------------------------------------------------------||
G|----9-9-9-9-9---9--9--------------------------------------------||
D|----9-9-9-9-9---9--9--------------------------------------------||
A|----7-7-7-7-7---7--7--------------------------------------------||
E|--------------0-------0-----------------------------------------||


Verse

Verse

  LR
E|----------------------------------------------------------------||
B|----------------------------------------------------------------||
G|----------------------------------------------------------------||
D|----------------------------------------------------------------||
A|----------------------------------------------------------------||
E|-0--------------------------------------------------------------||
    If you're meant to be here and you want to be late

E|----------------------------------------------------------------||
B|----------------------------------------------------------------||
G|----------------------------------------------------------------||
D|----------6-----------2----------7-----------2------------------||
A|----------6-----------2----------7-----------2------------------||
E|----------4-----------0----------5-----------0------------------||
 The best thing you can do is get lost on the way

E|------------------------------------------------------------------||
B|------------------------------------------------------------------||
G|------------------------------------------------------------------||
D|--------------------6------------2--------7-------------2---------||
A|--------------------6------------2--------7-------------2---------||
E|--------------------4------------0--------5-------------0---------||
   i can see that you look confused and you dont know what to do


Chorus

E|------------------------xxxx------------------------------------||
B|------------------------xxxx------------------------------------||
G|----9-9-9-9-9---9--9----xxxx------------------------------------||
D|----9-9-9-9-9---9--9----xxxx------------------------------------||
A|----7-7-7-7-7---7--7----xxxx------------------------------------||
E|--0-----------0-------0-xxxx------------------------------------||
                        Say

E|------------------------xxxx------------------------------------||
B|------------------------xxxx------------------------------------||
G|----9-9-9-9-9---9--9----xxxx------------------------------------||
D|----9-9-9-9-9---9--9----xxxx------------------------------------||
A|----7-7-7-7-7---7--7----xxxx------------------------------------||
E|--------------0-------0-xxxx------------------------------------||
                        What You See
                        What You Like


E|-----------------------------------------------------------------||
B|-----------------------------------------------------------------||
G|---6--6--6--6--6----4--4--4--4-----------------------------------||
D|---6--6--6--6--6----4--4--4--4--6--------------------------------||
A|---4--4--4--4--4----2--2--2--2--6--------------------------------||
E|--------------------------------4--------------------------------||
  If you work it out tell me what you find

E|--------------------------------------------------------------------------||
B|--------------------------------------------------------------------------||
G|----9-9-9-9-9---9--9----6---6---6---6---6---4--4---4---4------------------||
D|----9-9-9-9-9---9--9----6---6---6---6---6---4--4---4---4---6--------------||
A|----7-7-7-7-7---7--7----4---4---4---4---4---2--2---2---2---6--------------||
E|--------------0--------------------------------------------4--------------||
                      We can have a few decent days and nights


   Bridge

E|----------------------------------------------------------------||
B|----------------------------------------------------------------||
G|----------------------------------------------------------------||
D|----------------------------------------------------------------||
A|----------------------------------------------------------------||
E|----------------------------------------------------------------||
   we can have a few    we can have a few   we can have a few

E|----------------------------------------------------------------||
B|----------------------------------------------------------------||
G|--9---9---9---9---9---9-----------------------------------------||
D|--9---9---9---9---9---9-----------------------------------------||
A|--7---7---7---7---7---7-----------------------------------------||
E|----------------------------------------------------------------||
    decent days and nights

E|----------------------------------------------------------------||
B|----------------------------------------------------------------||
G|----------------------------------------------------------------||
D|----------------------------------------------------------------||
A|----------------------------------------------------------------||
E|----------------------------------------------------------------||
   we can have a few    we can have a few   we can have a few

E|----------------------------------------------------------------||
B|----------------------------------------------------------------||
G|--9---9---9---9---9---9-----------------------------------------||
D|--9---9---9---9---9---9-----------------------------------------||
A|--7---7---7---7---7---7-----------------------------------------||
E|----------------------------------------------------------------||
    decent days and nights

Guitar Fill

E|------------------------xxxx------------------------------------||
B|------------------------xxxx------------------------------------||
G|----9-9-9-9-9---9--9----xxxx------------------------------------||
D|----9-9-9-9-9---9--9----xxxx------------------------------------||
A|----7-7-7-7-7---7--7----xxxx------------------------------------||
E|--0-----------0------0--xxxx------------------------------------|| x 1

E|----------------------------------------------------------------||
B|----------------------------------------------------------------||
G|----9-9-9-9-9---9--9--------------------------------------------||
D|----9-9-9-9-9---9--9--------------------------------------------||
A|----7-7-7-7-7---7--7--------------------------------------------||
E|--------------0-------------------------------------------------||

Verse

E|----------------------------------------------------------------||
B|----------------------------------------------------------------||
G|----------------------------------------------------------------||
D|----------------------------------------------------------------||
A|----------------------------------------------------------------||
E|----------------------------------------------------------------||
     If you want to make a guess you should know its not a game


E|----------------------------------------------------------------||
B|----------------------------------------------------------------||
G|----------------------------------------------------------------||
D|---------------6------------2---------------7-------------2-----||
A|---------------6------------2---------------7-------------2-----||
E|---------------4------------0---------------5-------------0-----||
 'cause you'll never get a chance to make another guess again

E|----------------------------------------------------------------||
B|----------------------------------------------------------------||
G|--6---------------------4---------------------------------------||
D|--6---------------------4--------7-----------------------6------||
A|--4---------------------2--------7-----------------------6------||
E|---------------------------------5-----------------------4------||
  This is a brand new problem      A problem without any clues


E|----------------------------------------------------------------||
B|----------------------------------------------------------------||
G|---6---------------4--------------------------------------------||
D|---6---------------4---------7-----------------6----------------||
A|---4---------------2---------7-----------------6----------------||
E|-----------------------------5-----------------4----------------||
    If you know the clues     it's easy to get through

E|---------------------------------------------------------------------------------------||
B|---------------------------------------------------------------------------------------||
G|--9----9---9---------------------------------------------------------------------------||
D|--9----9---9---9----9---9---11---11-11---9----9--9-------------------------------------||
A|--7----7---7---9----9---9---11---11-11---9----9--9-------------------------------------||
E|---------------7----7---9----9----9--9---7----7--7-------------------------------------||
  But you look confused and you dont know what to do
  Its hard to get an answer when you havent got a clue
  If you want to make a guess you should know its not a game


E|----------------------------------------------------------------||
B|----------------------------------------------------------------||
G|---------9--9--9--9--9--9--9--9--9--9--9--9--9--9--9--9--9--9---||
D|---9--9--9--9--9--9--9--9--9--9--9--9--9--9--9--9--9--9--9--9---||
A|---9--9--7--7--7--7--7--7--7--7--7--7--7--7--7--7--7--7--7--7---||
E|---7--7---------------------------------------------------------||
   'cause you'll never get a chance to make another guess again

E|-----------------------------------------------------------------||
B|-----------------------------------------------------------------||
G|---6--6--6--6--6----4--4--4--4-----------------------------------||
D|---6--6--6--6--6----4--4--4--4--6--------------------------------||
A|---4--4--4--4--4----2--2--2--2--6--------------------------------||
E|--------------------------------4--------------------------------||
  If you work it out tell me what you find

E|----------------||
B|----------------||
G|----------------||
D|--DRUMS---------||
A|----------------||
E|----------------||
    Wooh!

Outro

E|------------------------xxxx------------------------------------||
B|------------------------xxxx------------------------------------||
G|----9-9-9-9-9---9--9----xxxx------------------------------------||
D|----9-9-9-9-9---9--9----xxxx------------------------------------||
A|----7-7-7-7-7---7--7----xxxx------------------------------------||
E|--0-----------0------0--xxxx------------------------------------||

E|----------------------------------------------------------------||
B|----------------------------------------------------------------||
G|----9-9-9-9-9---9--9--------------------------------------------||
D|----9-9-9-9-9---9--9--------------------------------------------||
A|----7-7-7-7-7---7--7--2-----------------------------------------||
E|--------------0-------0-----------------------------------------||

ORDER OF PLAY

Intro
Verse
Chorus
Guitar Fill
Verse
Chorus
Bridge
Guitar Fill
Verse
Intro (  As Part Of Verse)
Chorus
Guitar Fill/Outro

(BY THE WAY , IT SHOULD ALL BE IN ORDER)


Well Thats It All, Im Confident Its Right

Any Quieries , Questions Etc

Send An E-mail To


Thanks





Comments


Popular Futureheads tabs & chords
Decent Days And Nights 1 Bass Tabs
Hounds Of Love Bass Tabs
Decent Days And Nights Chords
Fallout Chords
Heartbeat Song 1 Chords
Robot Chords
Danger Of The Water Tabs
Piece Of Crap Intro Tabs
Struck Dumb Tabs
Stupid And Shallow Tabs


Song lyrics



↑ Back to top | Tablatures and chords are parodies/interpretations of the original songs. You may use it for private study, scholarship, research or language learning purposes only
© 2014 AZChords.com Contact us | Privacy policy | DMCA | Add/correct tabs | Request tabs | Top 50 tabs