>
 >
Falls On Me 5

Falls On Me 5 Guitar Tabs

Fuel - Falls On Me 5 chords, tabs, tablatures, lyrics

Guitar lessons | Add/correct | Request | Top 50 tabs Artists:  A B C D E F G H I J K L M N O P Q R S T U V W X Y Z 0-9

Falls On Me 5 Guitar Tabs – Fuel

CD, Sheet music, Poster

Do you like Falls On Me 5? Share with your friends now
Bass TabsChordsChords v2Chords v3TabsTabs v2Tabs v3Tabs v4Tabs v5Ukulele
Band: Fuel


Chords Used:
          C1    G1   F1     Am1   D   Dsus4
E||----|---0-----0----0------0----5----5---------|
B||----|---0-----0---10-----10----7----8---------|
G||----|---9-----4----0------9----7----7---------|
D||----|--10-----5---10-----10----7----7---------|
A||----|--10-----5----8------0----5----5---------|
E||----|---8-----3----X------X----5----5---------|


Intro
-----------0--------------------------|----------0-----------------0--------|
----------10-----------------10-------|-------------------------------------|
-----0-------0----------0-------0-----|-----0------0----------0------0------|
--10---10------10----10---10------10--|--10---10-----10----10---10-----10---|
8-----------------0------------------0|8----------------0-----------------0-|
--------------------------------------|-------------------------------------|

                                            D            Dsus4     D
------------0----------------------------|--5----5--5----5-----5-5-5--|
------------------------------10\--------|--7----7--8----8-----8-8-7--|
-------0------0----------0-----9---------|--7----7--7----7-----7-7-7--|
----10---10-----10----10---10-10---------|--7----7--7----7-----7-7-7--|
--8----------------0---------------------|--5----5--5----5-----5-5-5--|
-----------------------------------------|--5----5--5----5-----5-5-5--|


Verse 1
I've seen you hanging round               This darkness where I'm bound
----------0-----------------0--------|-----------0------------------0--------|
------------------------------10-----|-------------10------------------------|
-----0------0----------0-------0-----|------0-------0----------0------0------|
--10---10-----10----10---10------10--|---10---10------10----10---10-----10---|
8----------------0------------------0|-8-----------------0-----------------0-|
-------------------------------------|---------------------------------------|


And this black hole I've dug for me
                                            D            Dsus4     D
------------0----------------------------|--5----5--5----5-----5-5-5--|
------------------------------10\--------|--7----7--8----8-----8-8-7--|
-------0------0----------0-----9---------|--7----7--7----7-----7-7-7--|
----10---10-----10----10---10-10---------|--7----7--7----7-----7-7-7--|
--8----------------0---------------------|--5----5--5----5-----5-5-5--|
-----------------------------------------|--5----5--5----5-----5-5-5--|


And silently within                    With hands touching skin
----------0------------------0----|------------0-----------------0-------|
----------------------------10----|--------------------------------------|
-----0------0----------0----------|-------0------0----------0------0-----|
--10---10-----10----10---10-------|----10---10-----10----10---10-----10--|
8----------------0---------------0|--8----------------0------------------|
----------------------------------|--------------------------------------|

The shock breaks my disease                            And I can
                                        D       Dsus4     D
----------0---------------------|--5----5--5----5-----5-5-5--|
----------------------------10\-|--7----7--8----8-----8-8-7--|
-----0------0----------0-----9--|--7----7--7----7-----7-7-7--|
--10---10-----10----10---10-10--|--7----7--7----7-----7-7-7--|
8----------------0--------------|--5----5--5----5-----5-5-5--|
--------------------------------|--5----5--5----5-----5-5-5--|

Breathe
---0-----0-----0-x-x-|
--10----10----10-x-x-|
---0-----0-----0-x-x-|
--10----10----10-x-x-|
---8-----8-----8-x-x-|
-----------------x-x-|

[Chorus]
C1              G1
And all of your weight
         Am*
All you dream
         F*
Falls on me it falls on me
C1                 G1
And your beautiful sky
              Am*
The light you bring
        F*
Falls on me it falls on me
*Keep high E string open on the F chord.  For both F and Am, start with an open B string 
then hammer on the C note if desired

[Chorus Ending 1]
F1 Am1  F1 Am1  F1  Am1  D Dsus4 D


[Verse 2]  Follow general picking pattern of verse 1
Your faith like the pain
Draws me in again
She washes all my wounds for me
The darkness in my veins
I never could explain
And I wonder if you ever see
Will you still believe?


[Repeat Chorus]


[Bridge] Use standard G Am F E chords
G          Am*
Am I that strong

G         Am*
To carry on?

G                    Am*
I might change your life

          G         F
I might save my world

                E
Could you save me?
*Start with an open B string and then the C note is hammered on


[Repeat Chorus two more times]


[Chorus Ending 2]
F Am F Am F Am G
F Am F Am F Am G
F Am F Am F Am G
*Keep high E string open on the F chord.  For both F and Am, start with an open B string 
then hammer on the C note if desired


[Outro]
-----------0---------------------------|----------0-----------------0-------|
----------10-----------------10--------|------------------------------------|
-----0-------0----------0-------0------|-----0------0----------0------0-----|
--10---10------10----10---10------10---|--10---10-----10----10---10-----10--|
8-----------------0------------------0-|8----------------0-----------------0|
---------------------------------------|------------------------------------|

                                            let ring...
------------0----------------------------|------0-|
------------------------------10---------|-----7--|
-------0------0----------0---------------|----0---|
----10---10-----10----10---10------------|---7----|
--8----------------0---------------------|--5-----|
-----------------------------------------|--------|





Comments


Popular Fuel tabs & chords
Hemorrhage In My Hands 3 Chords
Sunburn 1 Chords
Bad Day Tabs
Falls On Me (Intro) Tabs
Forever Tabs
Hemmorhage 1 Tabs
Hemorrhage (In My Hands) Tabs
Jesus Or A Gun 1 Tabs
Last Time 5 Tabs
Sunburn 2 Tabs


Song lyrics



↑ Back to top | Tablatures and chords are parodies/interpretations of the original songs. You may use it for private study, scholarship, research or language learning purposes only
© 2014 AZChords.com Contact us | Privacy policy | DMCA | Add/correct tabs | Request tabs | Top 50 tabs