» » »

Fuel, Fall On Me Tabs (ver.3)

Artists:  A B C D E F G H I J K L M N O P Q R S T U V W X Y Z # 

Fall On Me Tabs (ver.3)

Fuel Tabs
 Rating:
4/5 (10 votes)
Fall On Me lessons Tabs too difficult? Try these video lessons and learn fast
                (My second tab for "Falls On Me")

Standard Tuning

CHORDS:
Fmaj7sus2: X-8-10-0-10-0
C5: X355XX OR (C) 8-10-10-9-X-X
G: 3554XX OR 320033
A5: 577XXX OR (Am) 5775XX
F: 1332XX OR (Fmaj7) XX3210
C/B: X20010

Intro:
  Fmaj7sus2       Am                  Fmaj7sus2       Am
|----------0---------------0------|----------0---------------0------|
|---------------------------------|---------------------------------|
|-------0----0----------0----0----|-------0----0----------0----0----|
|---10---------10---10---------10-|---10---------10---10---------10-|
|-8-------8-------0-------0-------|-8-------8-------0-------0-------|
|---------------------------------|---------------------------------|

  Fmaj7sus2        Am                D4sus2   
|----------0-----------------0----|-0---0---0---0---0-0-|
|----------------------------10---|-7---7---8---8---8-7-|
|-------0----0----------0----0----|-0---0---0---0---0-0-|
|---10---------10---10-------10---|-4---4---4---4---4-4-|
|-8-------8-------0-------0-------|-5---5---5---5---5-5-|
|---------------------------------|---------------------|


Verse 1: (Fmaj7sus2  Am   Fmaj7sus2  Am   Fmaj7sus2  Am  D4sus2)            
I see you hanging 'round
This darkness where I'm bound, in this black hole I've dug for me
And silently within, with hands touching skin
Shock breaks my disease, and I can breathe

Chorus: (distortion)
C5              G               A5             F
And all of your weight, all you dream falls on me, it falls on me
C5                 G                  A5             F
And your beautiful sky, the light you bring falls on me, it falls on me

F5 (palm mute)

G1:  F    Am         F       Am        
G2:
|------------------|------------------|
|-8---8---12-13-13-|-8---8---12-13-13-|
|-0---0---0--0--0--|-0---0---0--0--0--|
|-X---X---X--X--X--|-X---X---X--X--X--|
|-8---8---12-12-12-|-8---8---12-12-12-|
|------------------|------------------|

  F       Am         D4sus2
|------------------|------------------|
|-8---8---12-13-13-|-8---8---7--------|
|-0---0---0--0--0--|-X---X---X--------|
|-X---X---X--X--X--|-5---5---4--------|
|-8---8---12-12-12-|------------------|
|------------------|------------------|
         
Verse 2: (distortion; Palm Muted)
Your faith, like a pain, draws me in again
She washes all my wounds for me
Darkness in my veins, I never could explain
And I wonder if you ever see, would you still believe

(Chorus)

Bridge:
G         Am     G         Am
Am I that strong, to carry on
G                 Am      C/B           F
I might change my life, I might save my world
               E           E~
Could you save me?         Ahh

(Chorus 2x)

Outro:
G1:  F    Am         F       Am        
G2:
|------------------|------------------|
|-8---8---12-13-13-|-8---8---12-13-13-|
|-0---0---0--0--0--|-0---0---0--0--0--|
|-X---X---X--X--X--|-X---X---X--X--X--|
|-8---8---12-12-12-|-8---8---12-12-12-|
|------------------|------------------|

  F       Am         D4sus2
|------------------|------------------|
|-8---8---12-13-13-|-8---8---7--------|
|-0---0---0--0--0--|-X---X---X--------|
|-X---X---X--X--X--|-5---5---4--------|
|-8---8---12-12-12-|------------------|
|------------------|------------------|

  F    Am         F       Am        
|------------------|------------------|
|-8---8---12-13-13-|-8---8---12-13-13-|
|-0---0---0--0--0--|-0---0---0--0--0--|
|-X---X---X--X--X--|-X---X---X--X--X--|
|-8---8---12-12-12-|-8---8---12-12-12-|
|------------------|------------------|

  F       Am         D4sus2
|------------------|--------------------|
|-8---8---12-13-13-|-13\12-12\10-10\8-8-|
|-0---0---0--0--0--|--------------------|
|-X---X---X--X--X--|-10\9--9-\7--7-\5-5-|
|-8---8---12-12-12-|--------------------|
|------------------|--------------------|

  F              Am         F              Am
|-------------------------|-------------------------|
|-17-17-17(bend)-15-15-13-|-17-17-17(bend)-15-15-13-|
|-------------------------|-------------------------|
|-14-14-14(bend)-12-12-10-|-14-14-14(bend)-12-12-10-|
|-------------------------|-------------------------|
|-------------------------|-------------------------|

  F              Am         D4sus2~ (fade out)
|-------------------------|-------------------------|
|-17-17-17(bend)-15-15-13-|-12----------------------|
|-------------------------|-------------------------|
|-14-14-14(bend)-12-12-10-|-9-----------------------|
|-------------------------|-------------------------|
|-------------------------|-------------------------|

(clean guitar)
  Fmaj7sus2       Am                  Fmaj7sus2       Am
|----------0---------------0------|----------0---------------0------|
|---------------------------------|---------------------------------|
|-------0----0----------0----0----|-------0----0----------0----0----|
|---10---------10---10---------10-|---10---------10---10---------10-|
|-8-------8-------0-------0-------|-8-------8-------0-------0-------|
|---------------------------------|---------------------------------|

  Fmaj7sus2        Am                D4sus2   
|----------0-----------------0----|-0-------------------|
|----------------------------10---|-7-------------------|
|-------0----0----------0----0----|-0-------------------|
|---10---------10---10-------10---|-4-------------------|
|-8-------8-------0-------0-------|-5-------------------|
|---------------------------------|---------------------|
            
Submit corrections

comments powered by Disqus
↑ Back to top | Fuel Tabs for Fall On Me. Lyrics for acoustic guitar and electric guitar. Tablatures and chords are parodies/interpretations of the original songs. You may use it for private study, scholarship, research or language learning purposes only