>
 >
Falls On Me 4

Falls On Me 4 Guitar Tabs

Fuel - Falls On Me 4 chords, tabs, tablatures, lyrics

Guitar lessons | Add/correct | Request | Top 50 tabs Artists:  A B C D E F G H I J K L M N O P Q R S T U V W X Y Z 0-9

Falls On Me 4 Guitar Tabs – Fuel

CD, Sheet music, Poster

Do you like Falls On Me 4? Share with your friends now
Bass TabsChordsChords v2Chords v3TabsTabs v2Tabs v3Tabs v4Tabs v5Ukulele
watch out the vid on y*ut**e
please rate, its 100% correct

fig.1

e-----------0-------------------0--------------------------------------0---|
B------------------------------(10)------------------------------------10--|
G-------0-----0------------0--------0------ repeat 3 times, ends with--0---|
D----10---10-----10-----10---10-------10-------------------------------10--|
A--8----------------8-0------------------0-----------------------------8---|
E--------------------------------------------------------------------------|

then:

fig.2

-0-0-0-0-0-0-0-0--------------------|
-7-7-8-8-8-8-8-7--------------------|
-0-0-0-0-0-0-0-0--------------------|
-7-7-7-7-7-7-7-7--------------------|
-5-5-5-5-5-5-5-5--------------------|
------------------------------------|

I've seen you hanging round
This darkness where I'm bound
And this black hole I've dug for me
And silently within
With hands touching skin
The shock breaks my disease
And I can breathe

(ends with the last chord on fig.1, play this chord 3 times)

Chorus:

--0------0------0------1----------------------|
--0------0------1------1----------------------|
--9------4------2------2----------------------|
--10-----5------2------3----------------------|
--10-----5------0------3----------------------|
--8------3-------------1----------------------|

And all of your weight
All you dream
Falls on me it falls on me
And your beautiful sky
The light you bring
Falls on me it falls on me

ends with:

-1-1-1-1-1-1-1---0-------0--------|
-1-1-1-1-1-1-1---10------10-------|
-2-2-2-2-2-2-2---0--...--0---...--|repeat the last 2 chords several times,
-3-3-3-3-3-3-3---10------10-------|ends with fig.2
-3-3-3-3-3-3-3---8-------0--------|
-1-1-1-1-1-1-1--------------------|

Your faith like the pain
Draws me in again
She washes all my wounds for me
The darkness in my veins
I never could explain
And I wonder if you ever see
Will you still believe?

chorus

interlude:

used chords
  G   Am   F   E
--3---0----1---0-----------|
--3---1----1---0-----------|
--4---2----2---1-----------|
--5---2----3---2-----------|
--5---0----3---2-----------|
--3--------1---0-----------|

G           Am
Am I that strong
G         Am
To carry on?
G                    Am
I might change your life
         G       F
I might save my world
               E
Could you save me?

chorus

outro:

-1-1-1-1-1--0--0-0-0-0-----------------------3----|
-1-1-1-1-1--0--1-1-1-1-----------------------3----|
-2-2-2-2-2--2--2-2-2-2-----------------------4----|
-3-3-3-3-3--2--2-2-2-2---repeat, ends with --5----|
-3-3-3-3-3--0--0-0-0-0-----------------------5----|
-1-1-1-1-1--0--0-0-0-0-----------------------3----|

great song, enjoy :-)





Comments


Popular Fuel tabs & chords
Hemorrhage In My Hands 2 Bass Tabs
Bad Day Chords
Falls On Me 1 Chords
Shimmer Chords
Fall On Me Tabs
Going To California Tabs
Hemorrhage Tabs
Innocent Ukulele
Million Miles Ukulele
Wasted Time Ukulele


Song lyrics



↑ Back to top | Tablatures and chords are parodies/interpretations of the original songs. You may use it for private study, scholarship, research or language learning purposes only
© 2014 AZChords.com Contact us | Privacy policy | DMCA | Add/correct tabs | Request tabs | Top 50 tabs