» » »

Fuel, Down Tabs (ver.2)

Artists:  A B C D E F G H I J K L M N O P Q R S T U V W X Y Z # 

Down Tabs (ver.2)

Fuel Tabs
 Rating:
4/5 (4 votes)
Down lessons Tabs too difficult? Try these video lessons and learn fast
                -------------------------------------------------------------------------------
                             DOWN - Fuel
-------------------------------------------------------------------------------

Tuning: Drop D (D A D G B e)

Intro
e|---------------------------------------------------------------------------|
B|---------------------------------------------------------------------------|
G|---------------------------------------------------------------------------|
D|---------------------------------------------------------------------------|  
A|---------------------------------------------------------------------------|
D|--3b---5b---8b---------3b---5b------8b-------------------------------------|


Verse (I gave you everything...)
e|---------------------------------------------------------------------------|
B|---------------------------------------------------------------------------|
G|---------------------------------------------------------------------------|
D|-0-3-3-3-3-3-0-3------3-0-3------0-3-3-3-3-3-0-3-----3-0-6-----------------|  
A|-0-3-3-3-3-3-0-3------3-0-3------0-3-3-3-3-3-0-3-----3-0-6-----------------|
D|-0-3-3-3-3-3-0-3------3-0-3------0-3-3-3-3-3-0-3-----3-0-6-----------------|
   P.M.___________                 P.M.___________

You shoved me...            Down.... (play it FAST)
e|---------------------------------------------------------------------------|
B|---------------------------------------------------------------------------|
G|---------------------------------------------------------------------------|
D|--0---0---0--------------0-3-5-6-5-3-0--3-5-6-5-3---0-3-5-6-5-3-0----------|
A|--0---0---0--------------0-3-5-6-5-3-0--3-5-6-5-3---0-3-5-6-5-3-0----------|
D|--0---0---0--------------0-3-5-6-5-3-0--3-5-6-5-3---0-3-5-6-5-3-0----------|


Chorus (I know you want me to love you...)
e|---------------------------------------------------------------------------|
B|---------------------------------------------------------------------------|
G|-10-10-10-10-10-10-10--9-9-9-9-9-9-9--10-10-10-10-10-10-10--12-12-12-12-12-|
D|-8--8--8--8--8--8--8---7-7-7-7-7-7-7--8--8--8--8--8--8--8---10-10-10-10-10-|
A|-8--8--8--8--8--8--8---7-7-7-7-7-7-7--8--8--8--8--8--8--8---10-10-10-10-10-|
D|-8--8--8--8--8--8--8---7-7-7-7-7-7-7--8--8--8--8--8--8--8---10-10-10-10-10-|

e|---------------------------------------------------------------------------|
B|---------------------------------------------------------------------------|
G|---------------------------------------10-10-10-10-10-10---9-9-9-9-9-9-9-9-|
D|---------------------------------------8--8--8--8--8--8----7-7-7-7-7-7-7-7-|
A|--0-0-0-0-0-0-0-0-0-0----5~~~~~~~------8--8--8--8--8--8----7-7-7-7-7-7-7-7-|
E|--0-0-0-0-0-0-0-0-0-0------------------8--8--8--8--8--8----7-7-7-7-7-7-7-7-|
    P.M._______________

Verse
e|---------------------------------------------------------------------------|
B|---------------------------------------------------------------------------|
G|---------------------------------------------------------------------------|
D|-0-3-3-3-3-3-0-3------3-0-3------0-3-3-3-3-3-0-3-----3-0-6-----------------|  
A|-0-3-3-3-3-3-0-3------3-0-3------0-3-3-3-3-3-0-3-----3-0-6-----------------|
D|-0-3-3-3-3-3-0-3------3-0-3------0-3-3-3-3-3-0-3-----3-0-6-----------------|
   P.M.___________                 P.M.___________

e|---------------------------------------------------------------------------|
B|---------------------------------------------------------------------------|
G|---------------------------------------------------------------------------|
D|--0---0---0--------------0-3-5-6-5-3-0--3-5-6-5-3---0-3-5-6-5-3-0----------|
A|--0---0---0--------------0-3-5-6-5-3-0--3-5-6-5-3---0-3-5-6-5-3-0----------|
D|--0---0---0--------------0-3-5-6-5-3-0--3-5-6-5-3---0-3-5-6-5-3-0----------|

Chorus
e|---------------------------------------------------------------------------|
B|---------------------------------------------------------------------------|
G|-10-10-10-10-10-10-10--9-9-9-9-9-9-9--10-10-10-10-10-10-10--12-12-12-12-12-|
D|-8--8--8--8--8--8--8---7-7-7-7-7-7-7--8--8--8--8--8--8--8---10-10-10-10-10-|
A|-8--8--8--8--8--8--8---7-7-7-7-7-7-7--8--8--8--8--8--8--8---10-10-10-10-10-|
D|-8--8--8--8--8--8--8---7-7-7-7-7-7-7--8--8--8--8--8--8--8---10-10-10-10-10-|

e|---------------------------------------------------------------------------|
B|---------------------------------------------------------------------------|
G|---------------------------------------10-10-10-10-10-10---9-9-9-9-9-9-9-9-|
D|---------------------------------------8--8--8--8--8--8----7-7-7-7-7-7-7-7-|
A|--0-0-0-0-0-0-0-0-0-0----5~~~~~~~------8--8--8--8--8--8----7-7-7-7-7-7-7-7-|
D|--0-0-0-0-0-0-0-0-0-0------------------8--8--8--8--8--8----7-7-7-7-7-7-7-7-|
    P.M._______________


Bridge (Play this part during the solo)   "...me..."
e|---------------------------------------------------------------------------|
B|---------------------------------------------------------------------------|
G|---------------------------------------------------------------------------|
D|-------------------------0-3-5-6-5-3-0--3-5-6-5-3---0-3-5-6-5-3-0----------|
A|-------------------------0-3-5-6-5-3-0--3-5-6-5-3---0-3-5-6-5-3-0----------|
D|-------------------------0-3-5-6-5-3-0--3-5-6-5-3---0-3-5-6-5-3-0----------|


Last Chorus
e|-------------------------------------------------------------------------------|
B|-------------------------------------------------------------------------------|
G|---10-10-10-10-10-10---------------------10-10-10-10-10-10---12-12-12-12-12-12-|
D|---8--8--8--8--8--8-----0-0-0-0-0-0-0----8--8--8--8--8--8----10-10-10-10-10-10-|
A|---8--8--8--8--8--8-----0-0-0-0-0-0-0----8--8--8--8--8--8----10-10-10-10-10-10-|
D|---8--8--8--8--8--8-----0-0-0-0-0-0-0----8--8--8--8--8--8----10-10-10-10-10-10-|

e|---------------------------------------------------------------------------|
B|---------------------------------------------------------------------------|
G|---------------------------------------10-10-10-10-10-10---9-9-9-9-9-9-9-9-|
D|---------------------------------------8--8--8--8--8--8----7-7-7-7-7-7-7-7-|
A|--0-0-0-0-0-0-0-0-0-0----5~~~~~~~------8--8--8--8--8--8----7-7-7-7-7-7-7-7-|
D|--0-0-0-0-0-0-0-0-0-0------------------8--8--8--8--8--8----7-7-7-7-7-7-7-7-|
    P.M._______________

e|-------------------------------------------------------------------------------|
B|-------------------------------------------------------------------------------|
G|---10-10-10-10-10-10---------------------10-10-10-10-10-10---------------------|
D|---8--8--8--8--8--8-----0-0-0-0-0-0-0----8--8--8--8--8--8----0-0-0-0-0-0-0-----|
A|---8--8--8--8--8--8-----0-0-0-0-0-0-0----8--8--8--8--8--8----0-0-0-0-0-0-0-----|
D|---8--8--8--8--8--8-----0-0-0-0-0-0-0----8--8--8--8--8--8----0-0-0-0-0-0-0-----|


e|---------------------------------------------------------------------------|
B|--------------------------------------------10-10-10-10--------------------|
G|---10-10-10-10-10-10-----9-9-9-9-9-9-9-9-9--9--9--9--9---------------------|
D|---8--8--8--8--8--8------7-7-7-7-7-7-7-7-7--7--7--7--7---------------------|
A|---8--8--8--8--8--8------7-7-7-7-7-7-7-7-7--7--7--7--7---------------------|
E|---8--8--8--8--8--8------7-7-7-7-7-7-7-7-7--7--7--7--7---------------------|


Play till end of the song, end abruptly
e|---------------------------------------------------------------------------|
B|---------------------------------------------------------------------------|
G|---------------------------------------------------------------------------|
D|-------------------------0-3-5-6-5-3-0--3-5-6-5-3---0-3-5-6-5-3-0----------|
A|-------------------------0-3-5-6-5-3-0--3-5-6-5-3---0-3-5-6-5-3-0----------|
D|-------------------------0-3-5-6-5-3-0--3-5-6-5-3---0-3-5-6-5-3-0----------|
            
Submit corrections

comments powered by Disqus
↑ Back to top | Fuel Tabs for Down. Lyrics for acoustic guitar and electric guitar. Tablatures and chords are parodies/interpretations of the original songs. You may use it for private study, scholarship, research or language learning purposes only