>
 >
Bittersweet 1

Bittersweet 1 Guitar Tabs

Fuel - Bittersweet 1 chords, tabs, tablatures, lyrics

Guitar lessons | Add/correct | Request | Top 50 tabs Artists:  A B C D E F G H I J K L M N O P Q R S T U V W X Y Z 0-9

Bittersweet 1 Guitar Tabs – Fuel

CD, Sheet music, Poster

Do you like Bittersweet 1? Share with your friends now
Bass TabsTabsTabs v2Tabs v3Tabs v4Tabs v5Tabs v6


  Well I think this is pretty accurate.  I've played it to the
  track a thousand times to make sure it's right.  Credit to
  fenderstrat for the solo.  Overall this is a pretty easy song to
  play, and it sounds awesome.  Solo is supposed to be on these
  strings.  You can tell by the tone.  Song order at the bottom.

  Standard tuning:  Low to high  EADGBe

  Key:   x - Dead string
         ~ - Hold note
         / - Slide up to note
         \ - Slide down to note
         b - Bend

  Solo

  --7-7-7-7-8-7-10----10-10-8-7-7-7-7-8-7-5-3-3-5-3--|
  ---------------------------------------------------|
  ---------------------------------------------------|
  ---------------------------------------------------|
  ---------------------------------------------------|
  ---------------------------------------------------|

  -3-2-2-3-2---0---0--------------------------|
  --------------3-3--3----2~---2-2-2-2-2-2-2--|
  --------------------------------------------|
  --------------------------------------------|
  --------------------------------------------|
  --------------------------------------------|

  Pre-Verse
  --------------------------------------------|
  --------------------------------------------|
  --------------------------------------------|
  -2--2---5-5x---10-10-10-10-10-12-12-12------|
  -2--2---5-5x---10-10-10-10-10-12-12-12------|
  -0--0---3-3x---8--8--8--8--8--10-10-10------|

  Fill
  --------------------------------------------|
  ----------------0-0-0-0-0--0-0-0------------|
  ----------------2-2-2-2-2b(hold)------------|
  --------------------------^-----------------|  Guitar 2
  --------------------------1/2---------------|
  --------------------------------------------|

  Verse
  --------------------------------------------|
  --------------------------------------------|
  --------------------------------------------|
  -2x-2x-5x-5/10x-10x-10x-10\2----------------|
  -2x-2x-5x-5/10x-10x-10x-10\2----------------|
  -0x-0x-3x-3/8-x-8-x-8-x-8-\0----------------|


  Pre-Chorus
  -------------------------|
  -------------------------|
  -------------------------|
  --7--7-7-7-9-2x--x-xxx---|
  --7--7-7-7-9-2x--x-xxx---|
  --5--0-5-0-7-0x--x-xxx---|


  Chorus
  --------------------------------------------|
  --------------------------------------------|
  --------------------------------------------|
  --2--2---5-5x---10-10-10-10-10-12-12-12-----|
  --2--2---5-5x---10-10-10-10-10-12-12-12-----|
  --0--0---3-3x---8--8--8--8--8--10-10-10-----|

  Fill
  --------------------------------------------|
  ----------------0-0-0-0-0--0-0-0------------|
  ----------------2-2-2-2-2b(hold)------------|
  --------------------------^-----------------|  Guitar 2
  --------------------------1/2---------------|
  --------------------------------------------|


  Verse Variation
  ----------------------------------------------|
  ----------------------------------------------|
  ----------------------------------------------|
  -2x-2x-55x--10-10-10-10-10-10-10-9-9-9-9-9-9--|
  -2x-2x-55x--10-10-10-10-10-10-10-9-9-9-9-9-9--|
  -0x-0x-33x--8--8--8--8--8--8--8--7-7-7-7-7-7--|


  Outro
  ------------------------------|
  ------------------------------|
  ------------------------------|
  --------------------2~~~------|
  --------------------2~~~------|
  --------------------0~~~------|

  ------------------------------|
  --0-0-0-0-0--0-0-0-0----------|
  --2-2-2-2-2b(Slow Bend to 4)--|
  ------------------------------|  Guitar 2
  ------------------------------|
  ------------------------------|

  Song Order:

  Solo 1X
  Pre-Verse 2X
  Verse 4x
  Pre-Chorus 2X
  Chorus 3X
  Pre-Chorus 2X
  Pre-Verse 2X
  Verse 4X
  Pre-Chorus 2X
  Chorus 3X
  Pre-Chorus 2X
  Solo 1X
  Verse 1X
  Verse Variation 1X
  Chorus 3X
  Pre-Chorus 2X
  Chorus 3X
  Pre-Chorus 3X
  Outro 1X





Comments


Popular Fuel tabs & chords
Falls On Me Bass Tabs
Falls On Me 2 Chords
Leave The Memories Alone 1 Chords
Million Miles Chords
Bad Day Full Tabs
Bittersweet Tabs
Forever Tabs
Going To California Tabs
Innocent 4 Tabs
Leave The Memories Alone Ukulele


Song lyrics



↑ Back to top | Tablatures and chords are parodies/interpretations of the original songs. You may use it for private study, scholarship, research or language learning purposes only
© 2014 AZChords.com Contact us | Privacy policy | DMCA | Add/correct tabs | Request tabs | Top 50 tabs