» » »

Frederic Chopin, Prelude Op 28 Nr Tabs (ver.1)

Artists:  A B C D E F G H I J K L M N O P Q R S T U V W X Y Z # 

Prelude Op 28 Nr Tabs (ver.1)

Frederic Chopin Tabs
Rating:
0/5 (0 votes)
Prelude Op 28 Nr lessons Tabs too difficult? Try these video lessons and learn fast
                "(4)
Please email comments, corrections, suggestions and the rest to Hernán


---------0--|--0-----------------1-----|--0-----------------1-----|--0--------|
------------|-----1--1--1--1--1--------|--------------------------|-----------|
------------|-----2--2--2--2--2--2--2--|-----2--2--2--1--1--1--1--|-----------|
---2--------|-----2--2--2--2--2--------|-----0--0--0--0--0--0--0--|-----6--6--|
------------|--0-----------------3--3--|--2--2--2--2--2--2--------|-----5--5--|
------------|--------------------------|--------------------------|--6--6--6--|


----------------|--0-----------------------|--------------------0-----|-------|
----------6-----|--2--2--2--2--1--1--4-----|--3-----------------------|--3----|
----------------|--0--0--0--0--0--0--5--5--|--5--5--5--5--4--4--4--4--|--4--4-|
-6--5--5--5--5--|--------------------4--4--|--3--3--3--3--3--3--3--3--|--3--3-|
-5--5--5--------|--0--0--0--0--0--0--0--0--|--0--0--0--0--0--0--0--0--|--0--0-|
-6--6--6--6--6--|--------------------------|--------------------------|-------|


-------------------|--------------------0------|--------------------------|---|
-------------5-----|--3----------------------3-|--3-----------------2-----|---|
-4--4--4--4--4--4--|--4--4--4--4--4--4--4--4---|--3--3--3--3--3--3--3--3--|---|
-3--3--3--3--3--3--|--3--3--3--3--3--3--3--3---|--3--3--3--3--2--2--2--2--|---|
-0--0--------------|---------------------------|--------------------------|---|
-------4--4--4--4--|--3--3--3--3--3--3--3--3---|--3--3--3--3--3--3--3--3--|---|


----------0--3--1--------|--------------------------|--------------------0----|
-------3--------------3--|--0-----------------3-----|--0-------------------3--|
-2--2--2--2--2--2--2--2--|--2--2--1--1--2--2--2--2--|--1--1--1--1--2--2--2----|
-2--2--0-----------0--0--|--0--0--0--0--0--0--0--0--|--0--0--0--0--0--0--0----|
-------------------------|--------------------------|-------------------------|
-1--1--1--1--1--1--1--1--|--0--0--0--0--1--1--1--1--|--0--0--0--0--1--1--1----|


----|--------------3-1-0-|--0-----------------1-----|--0-----------------1----|
----|--1-0-------0-------|-----1--1--1--1--1--------|-------------------------|
-2--|--1-------1---------|-----2--2--2--2--2--2--2--|-----2--2--2--1--1--1----|
-0--|--0---3-2-----------|-----2--2--2--2--2--------|-----0--0--0--0--0--0----|
----|--------------------|--0-----------------3--3--|--2--2--2--2--2--2-------|
-1--|--0-----------------|--------------------------|-------------------------|


----|--0-----------------------|--------------------0--8-----7----5--|-5--4---|
----|--------------------6-----|--5----4-4----5p4-3-4----4--3--3-----|----3---|
-1--|--------------6--6--6--6--|--5----------------------------------|----4---|
-0--|--6--6--5--5--5--5--5--5--|--5--5---4----------5----4--3--3-----|--------|
----|--------------0--0--0--0--|--0--0---0--0-------0----0--0--0-----|--------|
----|--6--6--6--6--------------|-------------------------------------|-0------|


-13-4-4-5-8-4-|-3-1-5-----------------------------------0-----|---------------|
----3-5-5-5-5-|-----6---3-0--------3--0------------------3----|--0------------|
----4---------|-2-2---2-2-2--2--2--2--2--2--2--2--2--2--2--2--|--2--2--2--2---|
-12---------7-|-0-0-0-3---2--2--0--0--2--2--2--2--0--0--0--0--|--2--2--2--2---|
------3-3-0---|--------------------0--------------------------|---------------|
--------------|-------3-3-0--0--1-----0--0--0--0--1--1--1--1--|--0--0--0--0---|


---------------|-------------------------|-------------------------|----------|
---------------|-------------------0-----|--------------------0----|----------|
--1--1--1--1-2-|-2-----------------------|--2----------------------|-x2-------|
--2--2--0--0---|-------------1--1--0--0--|--0--0-------------------|-x1-------|
---------------|-3--3--3--3--------------|--------4--4--3--3--3--3-|-x3-------|
--0--0--0--0---|-1--1--1--1--1--1--1--1--|--0--0--0--0--0--0--0--0-|-x1-------|


--5-----4------|-5------------------------------------------------------------|
--5-----5------|-5------------------------------------------------------------|
--4-----4------|-5------------------------------------------------------------|
--2-----2------|-7------------------------------------------------------------|
---------------|-7------------------------------------------------------------|
---------------|-5------------------------------------------------------------|
"            

comments powered by Disqus
↑ Back to top | Frederic Chopin Tabs for Prelude Op 28 Nr. Lyrics for acoustic guitar and electric guitar. Tablatures and chords are parodies/interpretations of the original songs. You may use it for private study, scholarship, research or language learning purposes only