>
 >
Journey Of The Magi 1

Journey Of The Magi 1 Guitar Tabs

Frank Turner - Journey Of The Magi 1 chords, tabs, tablatures, lyrics

Guitar lessons | Add/correct | Request | Top 50 tabs Artists:  A B C D E F G H I J K L M N O P Q R S T U V W X Y Z 0-9

Journey Of The Magi 1 Guitar Tabs – Frank Turner

CD, Sheet music, Poster

Do you like Journey Of The Magi 1? Share with your friends now
ChordsChords v2TabsTabs v2Ukulele
This is the acoustic version of JOURNEY OF THE MAGI by FRANK TURNER


VERSE 1
              G                        D           
e|-3---2---0--3-------3-|--------------2-------2-|
B|-3---3---3--3-3---3---|-3-----1--0---3-3---3---|
G|-2---2---2--0---0-----|-0-----0--0---2---2-----|
D|------------0---------|-0-----0--0-------------|
A|------------2---------|-2-----2--2-------------|
E|------------3---------|------------------------|
   Mo-ses was old,      a chill in his bones.

   Am        C                    G                       D
e|-0---------0--------0----0------3--------|-3---3----3---2---|
B|-1----0----1--------1----1--0---3--------|-3---3----3---3---|
G|-2-------2-0--------0----2------0--------|-0---2----0---2---|
D|-2---------2--------2----0------0--------|-0---0----0-------|
A|-0---------3--------3----3------2--------|-0---0----0-------|
E|--------------------------------3--------|-3---3----3-------|
  Fall-ing a-part, he knew in his heart that his time had come.

                 G                         D           
e|----3---2---0--3-------3-|----------------2-------2-|
B|----3---3---3--3-3---3---|--3-----1---0---3-3---3---|
G|----2---2---2--0---0-----|--0-----0---0---2---2-----|
D|---------------0---------|--0-----0---0-------------|
A|---------------2---------|--2-----2---2-------------|
E|---------------3---------|--------------------------|
As he lay in his tent, in the hot   des-ert sands
  
   Am            C                    G                        D
e|-0-------------0--------0----0------3--------|-3---3----3----2---|
B|-1------0------1--------1----1--0---3--------|-3---3----3----3---|
G|-2---------2---0--------0----2------0--------|-0---2----0----2---|
D|-2-------------2--------2----0------0--------|-0---0----0--------|
A|-0-------------3--------3----3------2--------|-0---0----0--------|
E|------------------------------------3--------|-3---3----3--------|
he smiled at how he,     would nev-er see        his prom-ised land.

CHORUS 1

        C             D         Em       Am      G
e|------0-------------2---------0----------------3-------------------------|
B|------1-------------3---------0--------1-------3-------------------------|
G|------0-------------2---------0--------2-------0-------------------------|
D|------2-------------0---------2--------2-------0-------------------------|
A|------3-----------------------2--------0-------2-------------------------|
E|------------------------------0----------------3-------------------------|
He sang "I could have lived and died an Egyptian prince, I could have played

   C             G                         D                      G
e|-0-------------3-------------------------2----------------------3----|
B|-1-------------3-------------------------3----------------------3----|
G|-0-------------0-------------------------2----------------------0----|
D|-2-------------0-------------------------0----------------------0----|
A|-3-------------2-----------------------------------3--2-----0---2----|
E|---------------3------------------------------------------------3----|
safe, but in the end the journey's brought joys that outweigh the pain."

(The rest of the song is the same. As the song goes on the guitar part 
becomes fuller and the chords are played)

VERSE 2 (D, G, D, Am, C, G, D)

Odysseus sat tired and alone.
He'd always held out against all the doubts that he would come home.
But now he was here, his soul felt estranged.
His wife and his dog, his son and his Gods, everything changed.

CHORUS 2 (C, D, Em, Am, G, C, G, D, G)
He sang "I could have stayed and ruled as an Ithican prince,
I could've played safe.
But in the end the journey's brought joys that outweigh the pain."

BRIDGE 1 (Play twice)
e||------------|-----------------|-------0-0-2-------|-----------------||
B||----0h1-1-0-|---------0h1-1-0-|-------0-1-3-------|---0h1-1-0-------||
G||*---0-0-0-0-|---------0-0-0-0-|-------0-0-2-------|---0-0-0-0------*||
D||*---0h2-2-0-|---------0h2-2-0-|-------2-2---------|---0h2-2-0------*||
A||--2-2-0-0-2-|---0-2-2-2-0-0-2-|---0-2-2-3---3-2-0-|-2-2-0-0-2---0-2-||
E||--3-3-3-3-3-|-3-----3-3-3-3-3-|-3-----0-----------|-3-3-3-3-3-3-----||


VERSE 3 (D, G, D, Am, C, G, D)
Balthazar rode for seven long years, eastwards and far,
he followed his star, and it brought him here.
To a stable in ruins in some backwater town,
to a virgin defiled, no king but a child, too small for a crown.

CHORUS 3 (C, D, Em, Am, G, C, G, D, G)
He sang "I could have lived with my Gods as a Persian prince,
I could've played safe,
but in the end the journey's brought joys that outweigh the pain."

BRIDGE 2 (Same as BRIDGE 1 but with lyrics)
Paupers and kings, princes and thieves,
singers of songs, righters of wrongs, be what you believe.
So saddle your horse and shoulder your load,
burst at the seams, be what you dream, and take to the road.


That's all pretty much accurate, there's a few hammers during the
last verse and chorus to fill up the guitar part but that's up to
you to play as you wish.

Thanks,
John.





Comments


Popular Frank Turner tabs & chords
Anymore Chords
Dan's Song Chords
Reasons Not To Be An Idiot 1 Chords
The Road Chords
Casanova Lament Tabs
Worse Things Happen At Sea Tabs
Fathers Day Ukulele
Long Live The Queen Ukulele
Recovery Ukulele
Sea Legs Ukulele


Song lyrics



↑ Back to top | Tablatures and chords are parodies/interpretations of the original songs. You may use it for private study, scholarship, research or language learning purposes only
© 2014 AZChords.com Contact us | Privacy policy | DMCA | Add/correct tabs | Request tabs | Top 50 tabs