>
 >
Journey Of The Magi

Journey Of The Magi Guitar Tabs

Frank Turner - Journey Of The Magi chords, tabs, tablatures, lyrics

Guitar lessons | Add/correct | Request | Top 50 tabs Artists:  A B C D E F G H I J K L M N O P Q R S T U V W X Y Z 0-9

Journey Of The Magi Guitar Tabs – Frank Turner

CD, Sheet music, Poster

Do you like Journey Of The Magi? Share with your friends now
ChordsChords v2TabsTabs v2Ukulele

the chords are arppegiated throughout which you can hear
on the record to pick up


   Moses was old,   a chill in his bones. Falling  apart,
  (Odysseus sat tired and alone. He'd always held out
  (Balthazar rode for seven long years, eastwards and
e--3--2--0-----3~-------------------2~-------------------|
b--0-----------3~-----3----1---0----3~----1--0-----1-----|
g--0-----------0~-----0----0---0----2~----2-----2--0-----|
d--2-----------0~-----0----0---0----0~----2--------2-----|
a--------------2~-----2----2---2----------0--------3-----|
e--------------3~----------------------------------------|

 he knew in his heart     that his time had come.
(against all the doubts) (that he would come home.)
(he followe his star)    (and it brought him here.)
e-----------------3~--------------------------2~--|
b-----------------3~--------------------------3~--|
g-----------------0~--------------------------2~--|
d----------0--2---0~--------------------------0~--|
a-----3-----------2~------------3-2-0-------------|
e-----------------3~------------------------------|


 As he lay in his tent in the hot desert sands. he smiled at how he
(But now he was here, his soul felt estranged. His wife and his dog)
(To a stable in ruins in some backwater town, to a virgin defiled)

e------3---2--0---3~---------------------2~------------------------|
b------0----------3~----------3---1--0---3~--------1-----0-------1-|
g------0----------0~----------0---0--0---2~--------2--------2----0-|
d------2----------0~----------0---0--0---0~--------2-------------2-|
a-----------------2~----------2---2--2-------------0-------------3-|
e-----------------3~-----------------------------------------------|


  would never see his promised land.
(his son and his Gods, everything changed) - second verse
(no king but a child, too small for a crown) - third verse

e--------------3~--------------2~-|
b--------------3~--------------3~-|
g--------------0~--------------2~-|
d-------0--2---0~--------------0~-|
a--3-----------2~-----------------|
e--------------3~-----------------|


He sang "I could have lived and died an Egyptian prince,
(He sang "I could have stayed and ruled as an Ithican prince
(He sang "I could have lived with my Gods as a Persian prince

e---------------------2---------0----------------3-------|
b--------1------------3---------0-------3--------3-------|
g--------0------------2---------0-------2--------0-------|
d--------2------------0---------2-------0--------0-------|
a--------3----------------------2----------------2-------|
e-------------------------------0-------2--------3-------|

I could have played safe
e-----------------------|
b--------------------1--|
g--------------------0--|
d--------------------2--|
a--------------------3--|
e-----------------------|

 but in the end the journey's brought joys that outweigh the pain."
(2nd and 3rd chorus the same lyric)
3-----------3-------------------------2----------------------3-----|
3-----------3-------------------------3---------1---1----1---3-----|
0-----------0-------------------------2---------0---0----2---0-----|
0-----------0-------------------------0---------2---0----2---0-----|
2-----------2-----------------------------------3---2----0---2-----|
3-----------3------------------------------------------------3-----|


bridge part and 4th verse - listen to song to get picking rhythm

 Paupers and kings, princes and thieves, singers of songs, righters of
 wrongs. be what you believe. So saddle your horse and shoulder your load,
 burst at the seams, be what you dream, and take to the road.

e--3----3---3-------0~---3~--2~-------3----3--3-|
b--3----3---3-------0~---3~--3~-------3----3--3-|
g--0----0---0-------0~---0~--2~-------0----0--0-|
d--0----2---0--x2---2~---2~--0~-------0----2--2-|
a--2--2h3---2-------2~---3~-----3-2-0-2--2h3--3-|
e--3----3---3-------0~----------------3----3--3-|





Comments


Popular Frank Turner tabs & chords
Ballad For Me And My Friends Chords
Dan's Song 1 Chords
I Am Disappeared Chords
I Am Disappeared 1 Chords
Redemption 1 Chords
The Next Round Chords
The Way I Tend To Be Chords
Heartless Bastard Motherfucker Tabs
Nights Become Days Ukulele
The Next Round Ukulele


Song lyrics



↑ Back to top | Tablatures and chords are parodies/interpretations of the original songs. You may use it for private study, scholarship, research or language learning purposes only
© 2014 AZChords.com Contact us | Privacy policy | DMCA | Add/correct tabs | Request tabs | Top 50 tabs