>
 >
Nothing But A Ghost 1

Nothing But A Ghost 1 Guitar Tabs

Four Letter Lie - Nothing But A Ghost 1 chords, tabs, tablatures, lyrics

Guitar lessons | Add/correct | Request | Top 50 tabs Artists:  A B C D E F G H I J K L M N O P Q R S T U V W X Y Z 0-9

Nothing But A Ghost 1 Guitar Tabs – Four Letter Lie

CD, Sheet music, Poster

Do you like Nothing But A Ghost 1? Share with your friends now
TabsTabs v2
----------------------------------------------------------------------------
		Nothing But a Ghost  Four Letter Lie
----------------------------------------------------------------------------


Tuning: standard

Intro:
Guitar 1
e|-------------------7-9-------------7-9-9-9-11-11--9----9----11-9-6-7-----|
B|----------7--9-7-9--------------7------------------9-7--9-7----------7-9-|
G|------4-3-------------------4-3------------------------------------------|
D|--4-6-------------------4-6----------------------------------------------|
A|-------------------------------------------------------------------------|
E|-------------------------------------------------------------------------|
Guitar 2
e|-------------------------------------------------------------------------|
B|-------------------------------------------------------------------------|
G|-------------------------------------------------------------------------|
D|--2-2222---------------2-2222---------------------4-444-444-4-4-4-4-4-4-4|
A|--2-2222---------------2-2222---------------------4-444-444-4-4-4-4-4-4-4|
E|--0-0000-----4-------6-0-0000------4-----6--------2-222-222-2-2-2-2-2-2-2|

Guitar 1
e|-9----9------------------------------------------------------------------|
B|--9-7--9-7---------------------------------------------------------------|
G|-----------9-8-4---------------------------------------------------------|
D|-------------------------------------------------------------------------|
A|-------------------------------------------------------------------------|
E|-------------------------------------------------------------------------|
Guitar2
e|-------------------------------------------------------------------------|
B|-------------------------------------------------------------------------|
G|-------------------------------------------------------------------------|
D|4-222-224-4-4-4-4--------------------------------------------------------|
A|4-222-224-4-4-4-4--------------------------------------------------------|
E|2-000-002-2-2-2-2--------------------------------------------------------|
this x2


Verse  palm muted
e|-------------------------------------------------------------------------|
B|-------------------------------------------------------------------------|
G|-444444444444444444444444444444444444444444444444444444444444444444444444|
D|-------------------------------------------------------------------------|
A|-------------------------------------------------------------------------|
E|-------------------------------------------------------------------------|
Pre-chorus
e|-------------------------------------------------------------------------|
B|-------------------------------------------------------------------------|
G|-99-88-4--99-88-4------11------11------11------11------11----------------|
D|-------------------8-9-----8-9-----8-9-----8-9-----8-9-------------------|
A|-77-66-2--77-66-2--------------------------------------------------------|
E|-------------------------------------------------------------------------|
This x2

Guitar 1
e|-----6-----------6-------------------6-----------------------------------|
B|-7-7---7-9-7-------9-7---9-7-----7-7---7-9-7-----------------------------|
G|-------------9-8-------9-----9-8-------------9-8-9-8-6-------------------|
D|-------------------------------------------------------9--6-6-8-9--------|
A|-------------------------------------------------------------------------|
E|-------------------------------------------------------------------------|
Guitar 2
e|-------------------------------------------------------------------------|
B|-------------------------------------------------------------------------|
G|-------------------------------------------------------------------------|
D|4-4-4-4-4-4-4-4--6-6-6-6-6-6-6-6--2-2-2-2-6-----2-2-----2-2--------------|
A|4-4-4-4-4-4-4-4--6-6-6-6-6-6-6-6--2-2-2-2-6-----2-2-----2-2--------------|
E|2-2-2-2-2-2-2-2--4-4-4-4-4-4-4-4--0-0-0-0-4-----0-0-----0-0--------------|

Guitar 1
e|-----6-----------6-------------------6-----------------------666-7777----|
B|-7-7---7-9-7-------9-7---9-7-----7-7---7-9-7-----------------------------|
G|-------------9-8-------9-----9-8-------------9-8-999-888-----------------|
D|---------------------------------------------------------999-------------|
A|-------------------------------------------------------------------------|
E|-------------------------------------------------------------------------|
Guitar 2
e|-------------------------------------------------------------------------|
B|-------------------------------------------------------------------------|
G|-------------------------------------------------------------------------|
D|4-4-4-4-4-4-4-4--6-6-6-6-6-6-6-6--2-2-2-2-2-2-2-2-2-2-2-2-2-2-2-2--------|
A|4-4-4-4-4-4-4-4--6-6-6-6-6-6-6-6--2-2-2-2-2-2-2-2-2-2-2-2-2-2-2-2--------|
E|2-2-2-2-2-2-2-2--4-4-4-4-4-4-4-4--0-0-0-0-0-0-0-0-0-0-0-0-0-0-0-0--------|

Guitar 1
e|-----6-----------6-------------------6-----------------------------------|
B|-7-7---7-9-7-------9-7---9-7-----7-7---7-9-7-----------------------------|
G|-------------9-8-------9-----9-8-------------9-8-9-8-6-------------------|
D|-------------------------------------------------------9--6-6-8-9--------|
A|-------------------------------------------------------------------------|
E|-------------------------------------------------------------------------|
Guitar 2
e|-------------------------------------------------------------------------|
B|-------------------------------------------------------------------------|
G|-------------------------------------------------------------------------|
D|4-4-4-4-4-4-4-4--6-6-6-6-6-6-6-6--2-2-2-2-6-----2-2-----2-2--------------|
A|4-4-4-4-4-4-4-4--6-6-6-6-6-6-6-6--2-2-2-2-6-----2-2-----2-2--------------|
E|2-2-2-2-2-2-2-2--4-4-4-4-4-4-4-4--0-0-0-0-4-----0-0-----0-0--------------|

Guitar 1
e|-----6-----------6-------------------6-----------------------------------|
B|-7-7---7-9-7-------9-7---9-7-----7-7---7-9-7-----7777777777777777--------|
G|-------------9-8-------9-----9-8-------------9-8-4444444444444444--------|
D|-------------------------------------------------------------------------|
A|-------------------------------------------------------------------------|
E|-------------------------------------------------------------------------|
Guitar 2
e|-------------------------------------------------------------------------|
B|-------------------------------------------------------------------------|
G|-------------------------------------------------------------------------|
D|4-4-4-4-4-4-4-4--6-6-6-6-6-6-6-6-----------------------------------------|
A|4-4-4-4-4-4-4-4--6-6-6-6-6-6-6-6-----------------------------------------|
E|2-2-2-2-2-2-2-2--4-4-4-4-4-4-4-4-----------------------------------------|


Chorus: Leave            Im praying on my hands and knees
Guitar 1
e|-2---2---2---7---7---7--14---14---14---14---14---------------------------|
B|--2---2---2---7---7---7--14---14---14---14---14--------------------------|
G|---4---4-------9---9------16---16---16---16---16-------------------------|
D|-------------------------------------------------------------------------|
A|-------------------------------------------------------------------------|
E|-------------------------------------------------------------------------|
Ohhhh-ohhhhhh-ohhhhhhhh  just to proove you wrong.
Guitar 2
e|-------------------------------------------------------------------------|
B|-------------------------------------------------------------------------|
G|-------------------------------------------------------------------------|
D|-66666666----44444444---2222222222222222---------------------------------|
A|-66666666----44444444---2222222222222222---------------------------------|
E|-44444444----22222222---0000000000000000---------------------------------|
This x2

You feel                    so much pressure         just to 
Guitar 1
e|-------11-------------------------14----------------11-------------------|
B|----------12-14-11-12-------11-12----11-12-14----------12-14-11-12-------|
G|-13-11----------------11-13-------------------13-11----------------------|
D|-------------------------------------------------------------------------|
A|-------------------------------------------------------------------------|
E|-------------------------------------------------------------------------|
Guitar 2
e|-------------------------------------------------------------------------|
B|-------------------------------------------------------------------------|
G|-------------------------------------------------------------------------|
D|-4-4-4-4-4-4-4-4------6-6-6-6-6-6-6-6------------2-2-2-2-2-2-2-2-2-2-2-2-|
A|-4-4-4-4-4-4-4-4------6-6-6-6-6-6-6-6------------2-2-2-2-2-2-2-2-2-2-2-2-|
E|-2-2-2-2-2-2-2-2------4-4-4-4-4-4-4-4------------0-0-0-0-0-0-0-0-0-0-0-0-|

 Keep me                 here
Guitar 1
e|-------------11-9-----------------|--------------------------------------|
B|-------11-12------11-12-----------|--------------------------------------|
G|-11-13----------------------------|-----------4-------------4------------|
D|----------------------------------|-----4---4-----4---4---4--------------|
A|----------------------------------|---6---6-----6---6---6----------------|
E|----------------------------------|--------------------------------------|
Guitar 2
e|----------------------------------|--------------------------------------|
B|----------------------------------|--------------------------------------|
G|----------------------------------|--------------------------------------|
D|-2-2-2-2----------6666666644444444|--44444444444444444444444444444444----|
A|-2-2-2-2----------6666666644444444|--66666666666666666666666666666666----|
E|-0-0-0-0----------4444444422222222|--------------------------------------|
				This part x2

Same as Intro
Guitar 1
e|-------------------7-9-------------7-9-9-9-11-11--9----9----11-9-6-7-----|
B|----------7--9-7-9--------------7------------------9-7--9-7----------7-9-|
G|------4-3-------------------4-3------------------------------------------|
D|--4-6-------------------4-6----------------------------------------------|
A|-------------------------------------------------------------------------|
E|-------------------------------------------------------------------------|
Guitar 2
e|-------------------------------------------------------------------------|
B|-------------------------------------------------------------------------|
G|-------------------------------------------------------------------------|
D|--2-2222---------------2-2222---------------------4-444-444-4-4-4-4-4-4-4|
A|--2-2222---------------2-2222---------------------4-444-444-4-4-4-4-4-4-4|
E|--0-0000-----4-------6-0-0000------4-----6--------2-222-222-2-2-2-2-2-2-2|

Guitar 1
e|-9----9------------------------------------------------------------------|
B|--9-7--9-7---------------------------------------------------------------|
G|-----------9-8-4---------------------------------------------------------|
D|-------------------------------------------------------------------------|
A|-------------------------------------------------------------------------|
E|-------------------------------------------------------------------------|
Guitar2
e|-------------------------------------------------------------------------|
B|-------------------------------------------------------------------------|
G|-------------------------------------------------------------------------|
D|4-222-224-4-4-4-4--------------------------------------------------------|
A|4-222-224-4-4-4-4--------------------------------------------------------|
E|2-000-002-2-2-2-2--------------------------------------------------------|


  Verse 2:Can you smell it in the air...
e|-------------------------------------------------------------------------|
B|-------------------------------------------------------------------------|
G|---------4------------4--------------------------------------------------|
D|---4---4----4---4---4----------------------------------------------------|
A|-6---6----6---6---6------------------------------------------------------|
E|-------------------------------------------------------------------------|
 Repeats

 This is exactly    what I mean, but you keep pushing, pushing me away
e|--7---h9---------9-------------9-11-p9-------------9-11p9---------------|
B|----7--------------7-----------------------------------------------------|
G|-------------------------------------------------------------------------|
D|-------------------------------------------------------------------------|
A|-------------------------------------------------------------------------|
E|-------------------------------------------------------------------------|


Pre-chorus
e|-------------------------------------------------------------------------|
B|-------------------------------------------------------------------------|
G|-99-88-4--99-88-4-----11-----11-----11-----11------11--------------------|
D|-------------------89-----89-----89-----89-----8-9-----------------------|
A|-77-66-2--77-66-2--------------------------------------------------------|
E|-------------------------------------------------------------------------|
This x2

Then...
Guitar 1
e|-----6-----------6-------------------6-----------------------------------|
B|-7-7---7-9-7-------9-7---9-7-----7-7---7-9-7-----------------------------|
G|-------------9-8-------9-----9-8-------------9-8-9-8-6-------------------|
D|-------------------------------------------------------9--6-6-8-9--------|
A|-------------------------------------------------------------------------|
E|-------------------------------------------------------------------------|
Guitar 2
e|-------------------------------------------------------------------------|
B|-------------------------------------------------------------------------|
G|-------------------------------------------------------------------------|
D|4-4-4-4-4-4-4-4--6-6-6-6-6-6-6-6--2-2-6--------2-2-----2-2--------------|
A|4-4-4-4-4-4-4-4--6-6-6-6-6-6-6-6--2-2-6---------2-2-----2-2--------------|
E|2-2-2-2-2-2-2-2--4-4-4-4-4-4-4-4--0-0-4---------0-0-----0-0--------------|

Guitar 1
e|-----6-----------6-------------------6-----------6-----------------------|
B|-7-7---7-9-7-------9-7---9-7-----7-7---7-9-7-------9---------------------|
G|-------------9-8-------9-----9-8-------------9-8-----8-------------------|
D|-------------------------------------------------------------------------|
A|-------------------------------------------------------------------------|
E|-------------------------------------------------------------------------|

Guitar 2
e|-------------------------------------------------------------------------|
B|-------------------------------------------------------------------------|
G|-------------------------------------------------------------------------|
D|4-4-4-4-4-4-4-4--6-6-6-6-6-6-6-6--2--------------------------------------|
A|4-4-4-4-4-4-4-4--6-6-6-6-6-6-6-6--2--------------------------------------|
E|2-2-2-2-2-2-2-2--4-4-4-4-4-4-4-4--0--------------------------------------|


Chorus: Leave             Im praying on my hands and knees
e|-2---2---2---7---7---7--14---14---14---14---14---------------------------|
B|--2---2---2---7---7---7--14---14---14---14---14--------------------------|
G|---4---4-------9---9------16---16---16---16---16-------------------------|
D|-------------------------------------------------------------------------|
A|-------------------------------------------------------------------------|
E|-------------------------------------------------------------------------|
Ohhhh-ohhhhhh-ohhhhhhhh  just to proove you wrong.
Guitar 2
e|-------------------------------------------------------------------------|
B|-------------------------------------------------------------------------|
G|-------------------------------------------------------------------------|
D|-66666666----44444444---2222222222222222---------------------------------|
A|-66666666----44444444---2222222222222222---------------------------------|
E|-44444444----22222222---0000000000000000---------------------------------|
This x2

You feel                    so much pressure         just to 
Guitar 1
e|-------11-------------------------14----------------11-------------------|
B|----------12-14-11-12-------11-12----11-12-14----------12-14-11-12-------|
G|-13-11----------------11-13-------------------13-11----------------------|
D|-------------------------------------------------------------------------|
A|-------------------------------------------------------------------------|
E|-------------------------------------------------------------------------|
Guitar 2
e|-------------------------------------------------------------------------|
B|-------------------------------------------------------------------------|
G|-------------------------------------------------------------------------|
D|-4-4-4-4-4-4-4-4------6-6-6-6-6-6-6-6------------2-2-2-2-2-2-2-2-2-2-2-2-|
A|-4-4-4-4-4-4-4-4------6-6-6-6-6-6-6-6------------2-2-2-2-2-2-2-2-2-2-2-2-|
E|-2-2-2-2-2-2-2-2------4-4-4-4-4-4-4-4------------0-0-0-0-0-0-0-0-0-0-0-0-|

  Keep me                 here
e|-------------11-9--------------------------------------------------------|
B|-------11-12------11-12--------------------------------------------------|
G|-11-13-------------------------------------------------------------------|
D|-------------------------------------------------------------------------|
A|-------------------------------------------------------------------------|
E|-------------------------------------------------------------------------|
Guitar 2
e|-------------------------------------------------------------------------|
B|-------------------------------------------------------------------------|
G|-------------------------------------------------------------------------|
D|-2-2-2-2---------------66666666-44444444-2222222-2222222--22--22---------|
A|-2-2-2-2---------------66666666-44444444-2222222-2222222--22--22---------|
E|-0-0-0-0---------------44444444-22222222-0000000-0000000--00--00---------|


Bridge
Guitar 1					end on:
e|--------------------------------------------------------------------7----|
B|-----5/4/7/9/11-4h5p4----------------------------------------------7-----|
G|---43----------------6p4h6-----------------------------------------------|
D|-46--------------------------------------------------------------9-------|
A|------------------------------------------------------------------9------|
E|-------------------------------------------------------------------------|
Guitar 2
e|-------------------------------------------------------------------------|
B|-------------------------------------------------------------------------|
G|-------------------------------------------------------------------------|
D|22-22-------2-22----4-6--------------------------------------------------|
A|22-22-------2-22----4-6--------------------------------------------------|
E|00-00-------0-00----2-4--------------------------------------------------|


Chorus: Leave             Im praying on my hands and knees
e|-2---2---2---7---7---7--14---14---14---14---14---------------------------|
B|--2---2---2---7---7---7--14---14---14---14---14--------------------------|
G|---4---4-------9---9------16---16---16---16---16-------------------------|
D|-------------------------------------------------------------------------|
A|-------------------------------------------------------------------------|
E|-------------------------------------------------------------------------|
Ohhhh-ohhhhhh-ohhhhhhhh  just to proove you wrong.
Guitar 2
e|-------------------------------------------------------------------------|
B|-------------------------------------------------------------------------|
G|-------------------------------------------------------------------------|
D|-66666666----44444444---2222222222222222---------------------------------|
A|-66666666----44444444---2222222222222222---------------------------------|
E|-44444444----22222222---0000000000000000---------------------------------|
This x2

You feel                    so much pressure         just to 
e|-------11-------------------------14----------------11-------------------|
B|----------12-14-11-12-------11-12----11-12-14----------12-14-11-12-------|
G|-13-11----------------11-13-------------------13-11----------------------|
D|-------------------------------------------------------------------------|
A|-------------------------------------------------------------------------|
E|-------------------------------------------------------------------------|
Guitar 2
e|-------------------------------------------------------------------------|
B|-------------------------------------------------------------------------|
G|-------------------------------------------------------------------------|
D|-4-4-4-4-4-4-4-4------6-6-6-6-6-6-6-6------------2-2-2-2-2-2-2-2-2-2-2-2-|
A|-4-4-4-4-4-4-4-4------6-6-6-6-6-6-6-6------------2-2-2-2-2-2-2-2-2-2-2-2-|
E|-2-2-2-2-2-2-2-2------4-4-4-4-4-4-4-4------------0-0-0-0-0-0-0-0-0-0-0-0-|

  Keep me                 here
e|-------------11-9--------------------------------------------------------|
B|-------11-12------11-12--------------------------------------------------|
G|-11-13-------------------------------------------------------------------|
D|-------------------------------------------------------------------------|
A|-------------------------------------------------------------------------|
E|-------------------------------------------------------------------------|
Guitar 2
e|-------------------------------------------------------------------------|
B|-------------------------------------------------------------------------|
G|-------------------------------------------------------------------------|
D|-2-2-2-2---------------66666666-44444444-2222222-2222222-----------------|
A|-2-2-2-2---------------66666666-44444444-2222222-2222222-----------------|
E|-0-0-0-0---------------44444444-22222222-0000000-0000000-----------------|


Ending chorus:
Guitar 1
e|-22222222--55555555--14-14-14-14-14-14-14-14-14-14-14-14-14-14-14-14-----|
B|-00000000--33333333--12-12-12-12-12-12-12-12-12-12-12-12-12-12-12-12-----|
G|-------------------------------------------------------------------------|
D|-------------------------------------------------------------------------|
A|-------------------------------------------------------------------------|
E|-------------------------------------------------------------------------|
Guitar 2
e|-------------------------------------------------------------------------|
B|-------------------------------------------------------------------------|
G|-------------------------------------------------------------------------|
D|-6-6-6-6---4-4-4-4---2-----2-----2-----2-----2-----2-----2-----2---------|
A|-6-6-6-6---4-4-4-4---2-----2-----2-----2-----2-----2-----2-----2---------|
E|-4-4-4-4---2-2-2-2---0-----0-----0-----0-----0-----0-----0-----0---------|
This x2

You feel                    so much pressure         just to 
e|-------11-------------------------14----------------11-------------------|
B|----------12-14-11-12-------11-12----11-12-14----------12-14-11-12-------|
G|-13-11----------------11-13-------------------13-11----------------------|
D|-------------------------------------------------------------------------|
A|-------------------------------------------------------------------------|
E|-------------------------------------------------------------------------|
Guitar 2
e|-------------------------------------------------------------------------|
B|-------------------------------------------------------------------------|
G|-------------------------------------------------------------------------|
D|-4-4-4-4-4-4-4-4------6-6-6-6-6-6-6-6------------2-2-2-2-2-2-2-2-2-2-2-2-|
A|-4-4-4-4-4-4-4-4------6-6-6-6-6-6-6-6------------2-2-2-2-2-2-2-2-2-2-2-2-|
E|-2-2-2-2-2-2-2-2------4-4-4-4-4-4-4-4------------0-0-0-0-0-0-0-0-0-0-0-0-|

  Keep me                 here
e|-------------11-9--------------------------------------------------------|
B|-------11-12------11-12--------------------------------------------------|
G|-11-13-------------------------------------------------------------------|
D|-------------------------------------------------------------------------|
A|-------------------------------------------------------------------------|
E|-------------------------------------------------------------------------|
Guitar 2
e|-------------------------------------------------------------------------|
B|-------------------------------------------------------------------------|
G|-------------------------------------------------------------------------|
D|-2-2-2-2---------------66666666-44444444-2222222-2222222-----------------|
A|-2-2-2-2---------------66666666-44444444-2222222-2222222-----------------|
E|-0-0-0-0---------------44444444-22222222-0000000-0000000-----------------|

e|-------------------------------------------------------------------------|
B|-------------------------------------------------------------------------|
G|-------------------------------------------------------------------------|
D|66666666--44444444-------------------------------------------------------|
A|66666666--44444444-------------------------------------------------------|
E|44444444--22222222-------------------------------------------------------|
************************************

| /   slide up
| \   slide down
| h   hammer-on
| p   pull-off
| ~   vibrato
| +   harmonic
| x   Mute note
| b   Bend
| pb  Pre-bend
| br  Bend release
| pbr Pre-bend release
| brb Bend release bend

************************************





Comments


Popular Four Letter Lie tabs & chords
Naked Girl Avalanche Bass Tabs
Firecracker Chords
Cake Eater Tabs
Feel Like Fame Tabs
Firecracker Tabs
Firecracker 2 Tabs
Firecracker 5 Tabs
Nothing But A Ghost Tabs
Nothing But A Ghost Intro Tabs
Stay For A Lifetime Tabs


Song lyrics



↑ Back to top | Tablatures and chords are parodies/interpretations of the original songs. You may use it for private study, scholarship, research or language learning purposes only
© 2014 AZChords.com Contact us | Privacy policy | DMCA | Add/correct tabs | Request tabs | Top 50 tabs