» » »

Four Letter Lie, Nothing But A Ghost Tabs (ver.1)

Artists:  A B C D E F G H I J K L M N O P Q R S T U V W X Y Z # 

Nothing But A Ghost Tabs (ver.1)

Four Letter Lie Tabs
 Rating:
4.3/5 (6 votes)
Nothing But A Ghost lessons Tabs too difficult? Try these video lessons and learn fast
1
                k i got most of this. just read careful and you should get. comment and rate. i 
worked hard on this

Lead intro: x2

Eb---------------8-8/10-------------------10-10/12----10-10-10-12-10-8-----------|
Bb------------------------------------------------------8--8--8--------8/10------|
Gb-------5-7/9---------------5-7/9-----------------------------------------------|
Db---5-7------------------5-7----------------------------------------------------|
Ab-------------------------------------------------------------------------------|
Db-------------------------------------------------------------------------------|

Eb--10--10--12-10--------------------------------------------------------------|
Bb----8---8--------------------------------------------------------------------|
Gb-------------------9-9\7-7\5-------------------------------------------------|
Db-----------------------------------------------------------------------------|
Ab-----------------------------------------------------------------------------|
Db-----------------------------------------------------------------------------|

Rhythm intro: x2 listen for the rhythm on the palm mutes

Eb------------------------------------------------------------------------|
Bb------------------------------------------------------------------------|
Gb------------------------------------------------------------------------|
Db--33333-------33333-------5-5555555555555555--33--555555555555555-------|
Ab--33333-------33333-------5-5555555555555555--33--555555555555555-------|
Db--33333--5/7--33333--5/7--5-5555555555555555--33--555555555555555-------|
                            pm................  ..  ...............

Verse

Lead: listen for timing

Eb----------------------------------------------------------------------------|
Bb----------------------------------------------------------------------------|
Gb----------------------------------------------------------------------------|
Db--7~~~~5~~~~3~~~~7~~~~10~~~~3~~~~-------------------------------------------|
Ab--7~~~~5~~~~3~~~~7~~~~10~~~~3~~~~-------------------------------------------|
Db--7~~~~5~~~~3~~~~7~~~~10~~~~3~~~~-------------------------------------------|

Rhythm: watch out this is tricky ;)

Eb--------------------------------------------------------------------------|
Bb--------------------------------------------------------------------------|
Gb--5-5-5-5-5-5-5-5-5-5-5-5-5-5-5-5-5-5-5-5-5-5-5-5-5-5-5-5-5-5-5-5-5-5-----|
Db--------------------------------------------------------------------------|
Ab--------------------------------------------------------------------------|
Db--------------------------------------------------------------------------|
 pm   .....................................................................


Pre-Chorus

Lead:

Eb-----------------------------------------------------------------------|
Bb-----------------------------------------------------------------------|
Gb--10-10-9-9--5-10-10-9-9--5-------12----12----12----12-----------------|
Db--x--x--x-x--x-x--x--x-x--x---9h10--9h10--9h10--9h10-------------------|
Ab--8--8--7-7--3-8--8--7-7--3--------------------------------------------|
Db-----------------------------------------------------------------------|

Eb-----------------------------------------------------------------------|
Bb-----------------------------------------------------------------------|
Gb--10-10-9-9--5-10-10-9-9--5-------12----12----12----12-----------------|
Db--x--x--x-x--x-x--x--x-x--x---9h10--9h10--9h10--9h10-------------------|
Ab--8--8--7-7--3-8--8--7-7--3--------------------------------------------|
Db-----------------------------------------------------------------------|


Alright idk about this part. this is my guess, but feel free to make a correction

Eb-----------------------------------------|
Bb--8--10-8-12-8-10---8-10--8-12-8-10------| < do this part alot,
Gb------------------9------------------9---|
Db-----------------------------------------|
Ab-----------------------------------------|
Db-----------------------------------------|


Eb---------------------|       < then this litte variation,
Bb--10-8---------------|
Gb-------9-7-----------|
Db-----------9---------|
Ab---------------------|
Db---------------------|

Eb-----------------------------------------|
Bb--8--10-8-12-8-10---8-10--8-12-8-10------| < do this part alot,
Gb------------------9------------------9---|
Db-----------------------------------------|
Ab-----------------------------------------|
Db-----------------------------------------|


Eb-------------------------------------|
Bb-------------------12-12-12-13-13-13-|  and then this little fill
Gb--10-10-10-999-----------------------|
Db---------------999-------------------|
Ab-------------------------------------|
Db-------------------------------------|


Eb-----------------------------------------|
Bb--8--10-8-12-8-10---8-10--8-12-8-10------| < do this part alot,
Gb------------------9------------------9---|
Db-----------------------------------------|
Ab-----------------------------------------|
Db-----------------------------------------|



Eb---------------------|       < then this litte variation, again
Bb--10-8---------------|
Gb-------9-7-----------|
Db-----------9---------|
Ab---------------------|
Db---------------------|


Eb-----------------------------------------|
Bb--8--10-8-12-8-10---8-10--8-12-8-10------| < do this part alot,
Gb------------------9------------------9---|
Db-----------------------------------------|
Ab-----------------------------------------|
Db-----------------------------------------|



then this last thing before the chorus:

Eb------------------------------------------------------------------|
Bb--888888888888888888888-------------------------------------------|
Gb--555555555555555555555-------------------------------------------|
Db------------------------------------------------------------------|
Ab------------------------------------------------------------------|
Db------------------------------------------------------------------|


Prechorus Rhythm:

Eb-----------------------------------------|
Bb-----------------------------------------|
Gb--------------------------------  
            
Submit corrections

comments powered by Disqus
↑ Back to top | Four Letter Lie Tabs for Nothing But A Ghost. Lyrics for acoustic guitar and electric guitar. 1 Tablatures and chords are parodies/interpretations of the original songs. You may use it for private study, scholarship, research or language learning purposes only