>
 >
Brand New Day 2

Brand New Day 2 Guitar Tabs

Forty Foot Echo - Brand New Day 2 chords, tabs, tablatures, lyrics

Guitar lessons | Add/correct | Request | Top 50 tabs Artists:  A B C D E F G H I J K L M N O P Q R S T U V W X Y Z 0-9

Brand New Day 2 Guitar Tabs – Forty Foot Echo

CD, Sheet music, Poster

Do you like Brand New Day 2? Share with your friends now
ChordsChords v2TabsTabs v2Tabs v3Tabs v4Tabs v5Ukulele
Song : Brand New Day
Tuning : Drop D

Verse :
                                                         
D||--------------------------|--------------------------|
B||--------------------------|--------------------------|
G||--------------------------|--------------------------|
D||--11----11----11----11----|--11----11----13----13----|
A||--8-----8-----8-----8-----|--8-----8-----11----11----|
E||--8-----8-----8-----8-----|--8-----8-----11----11----|


                                                                              
--------------------------|--------------------------|-----------------------|
--------------------------|--------------------------|-----------------------|
--------------------------|--------------------------|-----------------------|
--13----13----13----10----|--10----10----10----10----|--10----8----8----8----|
--11----11----11----6-----|--6-----6-----6-----6-----|--6-----4----4----4----|
--11----11----11----6-----|--6-----6-----6-----6-----|--6-----4----4----4----|


                                                            
-----------------|----------------|
-----------------|----------------|
-----------------|----------------|
--8----8----8----|---8----10----11|
--4----4----4----|---8----10----11|
--4----4----4----|---8----10----11|
                  
                 *Upstroke these 3 notes*  

Chorus :
                                                                           
----------------------|----------------------|----------------------|-------|
----------------------|----------------------|----------------------|-------|
----------------------|--6----6--------------|----------------------|-------|
--4----4----4---------|--6----6----6----6----|--6----6----6----6----|--6----|
--4----4----4---------|--4----4----6----6----|--6----6----6----6----|--6----|
--4----4----4---------|------------6----6----|--6----6----6----6----|--6----|


                                                                        
Solo :

                                                                         
------------------------|-----------------------|-----------------------|
--9-9-9-7---------------|-----------------------|--9----7----------9----|
------------10----10----|--10----6----6----6----|------------10---------|
------------------------|-----------------------|-----------------------|
------------------------|-----------------------|-----------------------|
------------------------|-----------------------|-----------------------|


                                                                        
----------------------|-------------------------|----------------------|
--9----9----7----7----|--7----------------------|-----------------9----|
----------------------|-------10----10----10----|--6----6----6---------|
----------------------|-------------------------|----------------------|
----------------------|-------------------------|----------------------|
----------------------|-------------------------|----------------------|


                                                                         
-----------------------|----------------------|-------------------------|
--7----------9----9----|--9----7----7----7----|-------------------------|
-------10--------------|----------------------|--10----10----10----6----|
-----------------------|----------------------|-------------------------|
-----------------------|----------------------|-------------------------|
-----------------------|----------------------|-------------------------|


                                                                       
----------------------|-----------------------|-----------------------|
------------9----7----|--------9----9----9----|--7----7----7----------|
--6----6--------------|--10-------------------|-----------------10----|
----------------------|-----------------------|-----------------------|
----------------------|-----------------------|-----------------------|
----------------------|-----------------------|-----------------------|


                                                                        
------------------------|----------------------|-----------------------|
------------------------|------------9----7----|-----------------------|
--10----10----6----6----|--6----6--------------|--10-------------------|
------------------------|----------------------|------------------6h---|
------------------------|----------------------|--------6h---8---------|
------------------------|----------------------|-----------------------|


                                                                     
----------------------|----------------------|----------------------|
----------------------|----------------------|----------------------|
-------5h---6----5h---|--6h---5--------------|--6---------6---------|
--8-------------------|------------8----6----|-------6---------6----|
----------------------|----------------------|----------------------|
----------------------|----------------------|----------------------|


                                                                       
----------------------|-----------------------|-----------------------|
----------------------|-----------------14h---|--9----9----13h---9----|
--6----6----6---------|-------6h---8----------|-----------------------|
--6----6----6----6h---|--8--------------------|-----------------------|
----------------------|-----------------------|-----------------------|
----------------------|-----------------------|-----------------------|


                                                                            
-----------------------|------------------------|--16----------------16----|
--9----14h---9----9----|--13h---9----9----11----|--------14----------------|
-----------------------|------------------------|--------------15----------|
-----------------------|------------------------|--------------------------|
-----------------------|------------------------|--------------------------|
-----------------------|------------------------|--------------------------|


                                                      
--------------16----------|--------16----------------|
--14----------------14----|--------------14----------|
--------15----------------|--15----------------15----|
--------------------------|--------------------------|
--------------------------|--------------------------|
--------------------------|--------------------------|


                                                      
--------------------------|--------------------------|
--------------------------|--------------------------|
--13----13----13----13----|--13----13----15----15----|
--11----11----11----11----|--11----11----11----11----|
--11----11----11----11----|--11----11----11----11----|
--------------------------|--------------------------|


                                                      
--------------------------|--------------------------|
--14----13----------------|--------------------------|
--------------15----13----|--13----13----13----13----|
--11----11----11----11----|--11----11----11----11----|
--11----11----11----11----|--11----11----11----11----|
--------------------------|--------------------------|


                                                                           
--------------------------|--------------------------|
--------------------------|--14----13----------------|
--13----13----15----15----|--------------15----13----|
--11----11----11----11----|--11----11----11----11----|
--11----11----11----11----|--11----11----11----11----|
--------------------------|--------------------------|

Outro :
                                                                           
--------------------------|--------------------------|
--------------------------|--------------------------|
--------------------------|--------------------------|
--11----11----11----11----|--11----11----13----13----|
--8-----8-----8-----8-----|--8-----8-----11----11----|
--8-----8-----8-----8-----|--8-----8-----11----11----|


                                                                              
--------------------------|--------------------------|-----------------------|
--------------------------|--------------------------|-----------------------|
--------------------------|--------------------------|-----------------------|
--13----13----13----13----|--10----10----10----10----|--10----10----8--------|
--11----11----11----11----|--6-----6-----6-----6-----|--6-----6-----4--------|
--11----11----11----11----|--6-----6-----6-----6-----|--6-----6-----4--------|


Order of Song :

Verse X2
Chorus
Verse X3
Chorus
solo
Chorus X2
Outro





Comments


Popular Forty Foot Echo tabs & chords
Brand New Day Chords
Brand New Day 1 Chords
Brand New Day Tabs
Brand New Day 1 Tabs
Brand New Day 3 Tabs
Brand New Day 4 Tabs
Save Me Tabs
Save Me 2 Tabs
What If I Dont Tabs
Brand New Day Ukulele


Song lyrics



↑ Back to top | Tablatures and chords are parodies/interpretations of the original songs. You may use it for private study, scholarship, research or language learning purposes only
© 2014 AZChords.com Contact us | Privacy policy | DMCA | Add/correct tabs | Request tabs | Top 50 tabs