» » »

Forty Foot Echo, Brand New Day Tabs (ver.1)

Artists:  A B C D E F G H I J K L M N O P Q R S T U V W X Y Z # 

Brand New Day Tabs (ver.1)

Forty Foot Echo Tabs
Rating:
3/5 (2 votes)
Brand New Day lessons Tabs too difficult? Try these video lessons and learn fast
                Forty Foot Echo

            
The other version posted here is not accurate. So I did this quickly. 
The solo is not 100% but you can mess around with it yourself
            
Intro/Verse:
e ||----|----|----|----|
B ||----|----|----|----|
G ||4444|7777|----|----|
D ||4444|7777|7777|5555|
A ||2222|5555|7777|5555|
E ||----|----|5555|3333|
"never thought i'd say i'm sorry..."

Chorus                         

e ||----|----|----|----|
B ||----|----|----|----|
G ||----|7777|----|----|
D ||5555|7777|7777|7777|
A ||5555|5555|7777|7777|
E ||3333|----|5555|5555
"and i, i think i'll change my ways..."
                  
(chorus ending)
e ||--|---|---|--|
B ||--|---|---|--|
G ||9-|11-|12-|--|
D ||9-|11-|12-|--|
A ||7-|9--|10-|--|
E ||--|---|---|--|
"tomorrow's a new day"


Solo: (sorry it's a little sketchy. good luck)                                            

e ||----|-------|------|------17--------17--|
B ||----|-------|-10-10|--15----15--15----15|
G ||----|6h7p6-7|9--9--|14--14----14--14----|
D ||-9--|-----9-|------|--------------------|
A ||9---|-------|------|--------------------|
E ||----|-------|------|--------------------|
            

comments powered by Disqus
↑ Back to top | Forty Foot Echo Tabs for Brand New Day. Lyrics for acoustic guitar and electric guitar. Tablatures and chords are parodies/interpretations of the original songs. You may use it for private study, scholarship, research or language learning purposes only