» » »

Brother In Arms Tabs (ver.2)

Artists:  A B C D E F G H I J K L M N O P Q R S T U V W X Y Z # 

Brother In Arms Tabs (ver.2)

For The Fallen Dreams
Rating:
5/5 (3 votes)

Hard to play? Try these video lessons and learn fast.
                For the Fallen Dreams
Brothers In Arm
Changes 2008

120 BPM

Tuning: Drop A#

|-----------------------------------------------|
|-------------------------------11-10----10-11--|
|-------------------------------------10--------|
|--0--------------------------------------------| x2 
|--0------(000000-0--0--0--0)-------------------|
|--0------(000000-0--0--0--0)-------------------|
           x x xxxx x  x  x  x

|-----------------------------------------------------------------------|
|----------------------------------------------13-10----11-10----11-10--|
|----------------------------------------------------10-------10--------|
|--0---------------7------------7---------------------------------------|  
|--0---------------8------------8---------------------------------------|
|--0---0000-0-0-00---000000-0-0---0000-0-0-000--------------------------|
       xxxx x x xx   xxxxxx x x   xxxx x x xxx

|------------------------------------|
|------------------------------------|
|------------------------------------|
|--0-------Drum Fill-----------------|
|--0---------------------------------|
|--0---------------------------------|

|---------------------------------------------------------------------------|
|------------------11-10----11-10---------------------10h13p10--11----10-6--|
|------------------------10-------10-------------------------------10-------|
|--0----------7-7---------------------0----------7-7------------------------|
|--0----------8-8---------------------0----------8-8------------------------|
|--0--000-0-0-------------------------0--000-0-0----------------------------|
      xxx x x                            xxx x x

|-------------------------------------------------|
|-------------------------------------------------|
|-------------------------------------------------|
|-------------------------------------------------| x4
|--0-----------------3/5---5/7/8\7------------\1--|
|--0-0-0-0-0-0-0-0-0-----0------------------------|
     x x x x x x x x     x

Breakdown
|--------------------------------------------------|
|--------------------------------------------------|
|--------------------------------------------------|
|--------------------------------------------------| x2
|-------------------------------------------1-1-0--|
|--0-0-0-0-000-0-0-0-0-0-000-0-0-0-0-0-000--1-1-0--|
   x x x x xxx x x x x x xxx x x x x x xxx  

|------------------------------------------------|
|------------------------------------------------|
|------------------------------------------------|
|------------------------------------------------| x2
|-------------------1-1--------------------------|
|--1^-0-0-0-0-0-0-0-1-1-0-0-0-0-0-0-3-1-0-1-3-4--|
      x x x x x x x       x x x x x 

|---------------------------------------------|
|--------------------13-10----11-10----11-10--|
|--------------------------10-------10--------|
|---------------------------------------------|
|---------------------------------------------|
|--1^-0-0-0-0-0-0-0---------------------------|
        x x x x x x 

|-----------------------------------------------------------------------|
|----------------------------------------------13-10----11-10----11-10--|
|----------------------------------------------------10-------10--------|
|--0---------------7------------7---------------------------------------|  
|--0---------------8------------8---------------------------------------|
|--0---0000-0-0-00---000000-0-0---0000-0-0-000--------------------------|
       xxxx x x xx   xxxxxx x x   xxxx x x xxx

|--------------|
|--------------|
|--------------|
|--0-----------|
|--0-----------|
|--0-----------|
 
            
Hard to play? Try these video lessons and learn fast. | Correct




comments powered by Disqus
↑ Back to top | Tablatures and chords are parodies/interpretations of the original songs. You may use it for private study, scholarship, research or language learning purposes only