>
 >
Brother In Arms

Brother In Arms Guitar Tabs

For The Fallen Dreams - Brother In Arms chords, tabs, tablatures, lyrics

Guitar lessons | Add/correct | Request | Top 50 tabs Artists:  A B C D E F G H I J K L M N O P Q R S T U V W X Y Z 0-9

Brother In Arms Guitar Tabs – For The Fallen Dreams

CD, Sheet music, Poster

Do you like Brother In Arms? Share with your friends now
Tabs

Intro
(0:00- 0:16)
D----------------------------------------------------------------------------|
A-------9~--------------------------------------9~---------------------------|
F--12~----12~-8~-12~-13~-----12~--000000-0-0-0------12~-8~-12~-13~-----------|
C---X~------------------------X---000000-0-0-0-------------------------------|
G--10~-----------------------10~--000000-0-0-0-------------------------------|
C----------------------------------------------------------------------------|

"Where were you.."                    "when I needed you" x2
D------------------------------------------------------------------------------|
A--------------------------------------------{trem)----------------------------|
F--12~-0000-0-0000-12~-000000-0-0-0000-12-0000-00000-0--11-------9-------------|
C---X~-0000-0-0000--X~-000000-0-0-0000--X-0000-00000-0-----12-12---12-12-13-12-|
G--10~-0000-0-0000-10~-000000-0-0-0000-10-0000-00000-0-------------------------|
C------------------------------------------------------------------------------|
"Where were you.."                    "when I needed you" x2
D----------------------------------------------------------------------------|
A----------------------------------------------------------------------------|
F--12~-0000-0-0000-12~-000000-0-0-0000-12-000-00-0-0--11-------9-------------|
C---X~-0000-0-0000--X~-000000-0-0-0000--X-000-00-0-0-----12-12---12-12-13-12-|
G--10~-0000-0-0000-10~-000000-0-0-0000-10-000-00-0-0-------------------------|
C----------------------------------------------------------------------------|

D-----------------------------------------------------------------------------|
A---------------------------9-9----8----------------------9h11p9----9---------|
F-12~----12-0000--12-12--------12---12-8-12-0000-12-12-----------12---12-8-12-|
C--X~-----X-0000---X--X-------------------X-0000--X--X------------------------|
G-10~----10-0000--10-10------------------10-0000-10-10------------------------|
C-----------------------------------------------------------------------------|

D----------------------------------------------------------------------------|
A---------------------9-9----8------------------------9h11p9----9------------|
F--12-000000--12-12--------12---12-8-12-000000-12-12---------12---12-8-12----|
C---X-000000---X--X-------------------X-000000--X--X-------------------------|
G--10-000000--10-10------------------10-000000-10-10-------------------------|
C----------------------------------------------------------------------------|

D----------------------------------------------------------------------------|
A----------------------------------------------------------------------------|
F--12--------------3/5/3---5/7/8--7-77-777--3-33-333-------------------------|
C---x--00000000----x-x-x---x-x-x--x-xx-xxx--x-xx-xxx-------------------------|
G--10--00000000----1/3/1---3/5/6--5-55-555--1-11-111-------------------------|
C------00000000--------------------------------------------------------------|

D----------------------------------------------------------------------------|
A----------------------------------------------------(x8)--------------------|
F--------------3/5/3---5/7/8--7-77-777--3-33-333--10-------------------------|
C--000---------x-x-x---x-x-x--x-xx-xxx--x-xx-xxx---x-------------------------|
G--000---------1/3/1---3/5/6--5-55-555--1-11-111---8-------------------------|
C--000-0-0-0-----------------------------------------------------------------|

D----------------------------------------------------------------------------|
A----------------------------------------------------------------------------|
F----------------------------------------------------------------------------|
C--0-0000000--000--000-------0000000---000--0000-0-0000----------------------|
G--0-0000000--000--000-------0000000---000--0000-0-0000----------------------|
C--0-0000000--000--000-------0000000---000--0000-0-0000----------------------|
   D DUDUDUD  DUD  DUD       DUDUDUD   DUD  DUDU U UDUD

The other guitar does an open palm mute the entire time until the end

D----------------------------------------------------------------------------|
A----------------------------------------------------------------------------|
F----------------------------------------------------------------------------|
C---0000000--000--000-------0000000---000--0000-0-0000-----------------------|
G---0000000--000--000-------0000000---000--0000-0-0000-----------------------|
C---0000000--000--000-------0000000---000--0000-0-0000-----------------------|


D-----------------------------------------------------------------------------|
A-----------------------------------------------------------------------------|
F-----------------------------------------------------------------------------|
C-----00000000000-------00000000----------------------------------------------|
G--0~-00000000000-0~-0~-00000000----------------------------------------------|
C--0~-00000000000-0~-0~-00000000---00-1-0-1-3-1-1~-----AND REPEAT-------------|
       PM........       P.M....

D----------------------------------------------------------------------------|
A--11-------9----------------------------------------------------------------|
F-----12-12---12-12-13-12----------------------------------------------------|
C----------------------------------------------------------------------------|
G----------------------------------------------------------------------------|
C----------------------------------------------------------------------------|

"Where were you.."                    "when I needed you" x2
D------------------------------------------------------------------------------|
A--------------------------------------------{trem)----------------------------|
F--12~-0000-0-0000-12~-000000-0-0-0000-12-0000-00000-0--11-------9-------------|
C---X~-0000-0-0000--X~-000000-0-0-0000--X-0000-00000-0-----12-12---12-12-13-12-|
G--10~-0000-0-0000-10~-000000-0-0-0000-10-0000-00000-0-------------------------|
C------------------------------------------------------------------------------|
"Where were you.."                    "when I needed you" x2
D------------------------------------------------------------------------------|
A------------------------------------------------------------------------------|
F--12~-0000-0-0000-12~-000000-0-0-0000-12-000-00-0-0--11-------9---------------|
C---X~-0000-0-0000--X~-000000-0-0-0000--X-000-00-0-0-----12-12---12-12-13-12---|
G--10~-0000-0-0000-10~-000000-0-0-0000-10-000-00-0-0---------------------------|
C------------------------------------------------------------------------------|


D----------------------------------------------------------------------------|
A----------------------------------------------------------------------------|
F--12------------------------------------------------------------------------|
C---x------------------------------------------------------------------------|
G--10------------------------------------------------------------------------|
C----------------------------------------------------------------------------|

That's it

I know some of it is off and i'm too lazy to fix

AIM = wowalexuranidiot





Comments


Popular For The Fallen Dreams tabs & chords
Brothers In Arms Tabs
Brothers In Arms 1 Tabs
Brothers In Arms 2 Tabs
Brothers In Arms 3 Tabs
In Sincerity Tabs
In Sincerity 2 Tabs
New Beginnings Tabs
New Beginnings Intro Tabs
The Call Out Perceptions Tabs
This World Around Us Tabs


Song lyrics



↑ Back to top | Tablatures and chords are parodies/interpretations of the original songs. You may use it for private study, scholarship, research or language learning purposes only
© 2014 AZChords.com Contact us | Privacy policy | DMCA | Add/correct tabs | Request tabs | Top 50 tabs