>
 >
If Work Permits 1

If Work Permits 1 Guitar Tabs

Format - If Work Permits 1 chords, tabs, tablatures, lyrics

Guitar lessons | Add/correct | Request | Top 50 tabs Artists:  A B C D E F G H I J K L M N O P Q R S T U V W X Y Z 0-9

If Work Permits 1 Guitar Tabs – Format

CD, Sheet music, Poster

Do you like If Work Permits 1? Share with your friends now
ChordsChords v2Chords v3TabsTabs v2Ukulele
**Note: This is not 100% correct, BUT its what I got, its pretty close and better than
is posted on the site**
         [E]                                [A]
]----0------------------0--------2p0---2----------------|
]----0---------------------2--------------2-------------|
]-----------------------------2---------------2---------|
]-----------2-------------------------------------------|
]------0h2-----------0-----0-----0-----0------0---------|
]--0--------0-------------------------------------------|
"So the wind that blows across your room..."

         [E]                              [E]                       [A]
]----0-----------------0-------------0--------2p0---2----------------|
]----0--------------0----0--------------2--------------2-------------|
]---------------------------1--------------2---------------2---------|
]-----------2--------------------------------------------------------|
]------0h2----------2-------------0-----0-----0-----0------0---------|
]--0--------0--------------------------------------------------------|
                            "One day you'll kiss your rabbit's nose...."


     [E]             [E]       [A]                [B7]
]----0----------------0---------0-------------------2---------------|
]----0--------------0---0-------2-------------------0---------------|
]-------------------------1-----2-------------------2---------------|
]-----------2-------------------2-------------------1---------------|
]------0h2----------2-----------0------4--2--0------2---------------|
]--0--------0-------------------------------------------------------|
                  "Now all the things you had, they aren't the same as what you..."

[I'm not too sure about this part but the ''E'' chord is picked differently after the 
above/\/\..]
        [E]
]----0-------------|
]----------0-------|
]----1-------1-----|
]------------2-----|
]------0h2---------|
]--0---------------|

[The rest of the picking is the same as the above, and then...]

          [E]                           [E]                 [Bsus4/Eb]
]----0----------------0----------2-----------------------|
]----0--------------0---0--------4----4----5---7---------|
]--------------------------------4----4----6---8---------|
]-----------2--------------------2----2------------------|
]------0h2----------2---2--------2----2------------------|
]--0--------0--------------------x-----------------------|
"but that wind that blows across your room is gonna set the sail and send me back to youuu"


]--------------------------|
]--------------------------|
]---------------2----------|
]--2------------2----------|
]--2------------0----------|
]--0-----------------------|

"Sometimes, when sailors are sailing..."

]-------------------------------------------------------------------------|
]-------------------------------------------------------------------------|
]---------------2--------------------------------------------------2------|
]--2------------2-------------4------------------------------------2------|
]--2------------0-------------4------------------------------------0------|
]--0--------------------------2-------------------------------------------|
                              "I'm writing the folks back home to tell them, Hey I...
Hey I'm doing alright."

]-----------------------------------------------|
]-----------------------------------------------|
]----9----------9-------------------------------|
]----9---7------9----7-----9------11------------|
]----7---7------7----7-----9------11------------|
]--------5-----------5-----7------9-------------|

"It's a shame what your father did to your brother's head...."


]-----------------------------------------------|
]-----------------------------------------------|
]----9----------9-------------------------------|
]----9---7------9----11----9----7---------------|
]----7---7------7----11----9----7---------------|
]--------5-----------9-----7----5---------------|

"...lord do you remember it..."

]-----------------------------------------------------|
]-----------------------------------------------------|
]----------------9----------9-------------------------|
]--7-------------9---7------9----11----9----7---------|
]--7-------------7---7------7----11----9----7---------|
]--5-----------------5-----------9-----7----5---------|

"...scared of love, I'm hear to tell you love just isn't some blood on the receiver"

]-----------------------------------------------|
]-----------------------------------------------|
]---------------9--8--6-------------------------|
]--7------------x--x--x-----2-------------------|
]--7------------7--6--4-----2-------------------|
]--5------------------------0-------------------|

"Love is speaking in codes. It's an inside joke. Love is coming Hooooomeee"


]--------------------------|
]--------------------------|
]---------------2----------|
]--2------------2----------|
]--2------------0----------|
]--0-----------------------|

"Sometimes, when sailors are sailing..."


]-------------------------------------------------------------------------|
]-------------------------------------------------------------------------|
]---------------2--------------------------------------------------2------|
]--2------------2-------------4------------------------------------2------|
]--2------------0-------------4------------------------------------0------|
]--0--------------------------2-------------------------------------------|
                              "I'm writing the folks back home to tell them, Hey I...
Hey I'm doing alright."


]------------------------------------------------------------|
]------------------------------------------------------------|
]-9----------------------------------------------------------|
]-9---------------7-----------4------------------------7-----|
]-7---------------7-----------4------------------------7-----|
]-----------------5-----------2------------------------5-----|

      "Ya I'm doing just fine, and if she seems as lonely as me let her... sink
Ya I'm doing alright..."

]-----------------------------------------------|
]-----------------------------------------------|
]----9----------9-------------------------------|
]----9---7------9----7-----9------11------------|
]----7---7------7----7-----9------11------------|
]--------5-----------5-----7------9-------------|

END WITH:

]--------------------------------------------------|
]--------------------------------------------------|
]-------------9----------9-------------------------|
]-------------9---7------9----11----9----7---------|
]-------------7---7------7----11----9----7---------|
]-----------------5-----------9-----7----5---------|





Comments


Popular Format tabs & chords
Dog Problems Chords
She Doesn't Get It 2 Chords
Swans Chords
Wait Wait Wait 1 Chords
Give It Up 1 Tabs
I'm Ready I Am Tabs
Sore Thumb Tabs
Career Day Ukulele
Oceans Ukulele
Threes Ukulele


Song lyrics



↑ Back to top | Tablatures and chords are parodies/interpretations of the original songs. You may use it for private study, scholarship, research or language learning purposes only
© 2014 AZChords.com Contact us | Privacy policy | DMCA | Add/correct tabs | Request tabs | Top 50 tabs