» » »

Give It Up Tabs (ver.3)

Artists:  A B C D E F G H I J K L M N O P Q R S T U V W X Y Z # 

Give It Up Tabs (ver.3)

Format
Rating:
5/5 (3 votes)

Hard to play? Try these video lessons and learn fast.
                
This is my first tab. Hope you like it. Tune all the strings half a step down.


Intro:
eb|-----0--0----------0--0----3--3-----------3--3-----------|
Bb|-----1--1----------1--1----0--0-----------0--0-----------|
Gb|-----0--0----------0--0----0--0-----------0--0-----------|
Db|-----2--2-----2----2--2----0--0-----0-----0--0-----0-----|
Ab|--3--3--3-----3----3--3----2--2--2--2--2--2--3--2--2--2--|
Eb|--0--------0----0--0--0-0--3--3--3-----3--3--3--3-----3--| 2x

then:

eb|--3--3--1--1--0--0--|
Bb|--0--0--0--0--0--0--|
Gb|--0--0--0--0--0--0--|
Db|--0--0--0--0--0--0--|
Ab|--2--2--2--2--2--2--|
Eb|--3--3--3--3--3--3--|

Verse: Pretty much just the two chords

   Well i made my way back down to the valley
eb|--0--|
Bb|--1--|
Gb|--0--|
Db|--2--|
Ab|--3--|
Eb|--0--|

   Right on past eighty-
eb|--3--|
Bb|--0--|
Gb|--0--|
Db|--0--|
Ab|--2--|
Eb|--3--|

   third street that's where we once belonged
eb|--0--|
Bb|--1--|
Gb|--0--|
Db|--2--|
Ab|--3--|
Eb|--0--|


but I'm gone I swear I'm long gone
eb|--3--3--1--1--0--0--|
Bb|--0--0--0--0--0--0--|
Gb|--0--0--0--0--0--0--|
Db|--0--0--0--0--0--0--|
Ab|--2--2--2--2--2--2--|
Eb|--3--3--3--3--3--3--|


Chorus:
So give it, throw your hats in the air 
eb|---------1-1-1-----------3-3-3-|
Bb|--1-1-x--1-1-1--1-1-1-x--0-0-0-|
Gb|--2-2-x--2-2-1--0-0-0-x--0-0-0-|
Db|--2-2-x--3-3-3--2-2-2-x--0-0-0-|
Ab|---------3-3-3--3-3-3-x--2-2-2-|
Eb|---------1-1-1-----------3-3-3-|

and change just as they land youre saying "we'll get out of here"
eb|---------1-1-1------------3-3-3-|
Bb|--1-1-x--1-1-1--1-1-1-x---0-0-0-|
Gb|--2-2-x--2-2-1--0-0-0-x---0-0-0-|
Db|--2-2-x--3-3-3--2-2-2-x---0-0-0-|
Ab|---------3-3-3--3-3-3-x---2-2-2-|
Eb|---------1-1-1------------3-3-3-|

But something tells me you're too scared to go 
eb|---------1-1-1------------3-3-3-|------0------------------0-|
Bb|--1-1-x--1-1-1--1-1-1-x---0-0-0-|----1--------------------1-|
Gb|--2-2-x--2-2-1--0-0-0-x---0-0-0-|--2-----------2-------0--0-|
Db|--2-2-x--3-3-3--2-2-2-x---0-0-0-|2-----------3-------0----2-|
Ab|---------3-3-3--3-3-3-x---2-2-2-|----------3-------2------3-|
Eb|---------1-1-1------------3-3-3-|--------1-------3--------0-|

Verse 2:
So the stairs that you could climb 
are the ones youve left behind 
and your eyes light up when we talk about the past 
god I miss those songs we used to sing, 
talking like getting away would be the greatest thing 
well me, I got out, and you kept singing to me 
like that's really going to set this free

Chorus

Like a ghost you've been haunting all these dusty old roads and old homes 
the ones we swore we'd never go 

Bridge played like verses:
As for Joe,
Oh I've seen him around 
then there's Adam, 
he's afraid to go out 
I dont blame him, 
I just wanted to go out to eat 
then there's Mark goddamn I wish him the best 
we were kids back then as if we could progress but 
sometimes I just cant sleep, thinking of
Everything we could have been

Chorus
            
Hard to play? Try these video lessons and learn fast. | Correct




comments powered by Disqus
↑ Back to top | Tablatures and chords are parodies/interpretations of the original songs. You may use it for private study, scholarship, research or language learning purposes only