» » »

Genesis 12a Tabs (ver.2)

Artists:  A B C D E F G H I J K L M N O P Q R S T U V W X Y Z # 

Genesis 12a Tabs (ver.2)

Foreign Objects
Rating:
0/5 (0 votes)

Hard to play? Try these video lessons and learn fast.
                Band: Foreign Objects
Tuning: Standard

GUITAR ONE (Left) - 4/4 Timing
G:--------------------------------|------------------------------|
D:-------------11-------------11--|-------------8-------------8--|
A:--8-8--8b9r8-----8-8--8b9r8-----|--6-6--6b7r6----6-6--6b7r6----|
E:--6-6------------6-6------------|--4-4-----------4-4-----------|

GUITAR TWO (Right)
G:----------------13----------------13--|-------------10------------10--|
D:-------10b11r10----------10b11r10-----|-------8b9r8---------8b9r8-----|
A:--8-8---------------8-8---------------|--6-6------------6-6-----------|
E:--------------------------------------|-------------------------------|


BOTH - Switch to 3/4 Timing - "A new project unveiled not by man.."
G:-----------------------------|-----------------------------|
D:----------8-----6-------4----|----------8-----6------------|
A:--8---------------4---4------|--8---------------4---4-3----|
E:----6-4-6---6-------6-----6--|----6-4-6---6-------6-----4--|


BOTH Still - Back to 4/4 - "All around, you can breathe.."
G:-----------------------|-----------------------|
D:-----------------------|-----------------------|
A:-------4446------4446--|-------4446------4446--|
E:--6666------6666-------|--4444------4444-------|

G:-----------------------|------------------------|
D:-----------------------|------------------------|
A:-------4446------4446--|-------4446------8-6-4--|
E:--6666------6666-------|--4444------4444--------|


Repeat Verse x4 - "Now the magic begins, with nerve in its place.."


Repeat Chorus - "All around, you can breathe.."

But guitar 2 now plays this instead:
G:-----------------6668--|-----------------6668--|
D:------------8888-------|------------6666-------|
A:-------4446------------|-------4446------------|
E:--6666-----------------|--4444-----------------|

G:-----------------6668--|-----------------10-8-6--|
D:------------8888-------|-------------------------|
A:-------4446------------|-------4446--------------|
E:--6666-----------------|--4444------4444---------|


BOTH GUITARS
G:-------------------5---5/7--|------------------------|
D:--------7779----------------|-------7779-------6667--|
A:----------------------------|--5555-------7777-------|
E:--5555--------1111---1------|------------------------|

Lead
e:------13~-10~-12~--|
B:--10~--------------|
G:-------------------|
D:-------------------|
A:-------------------|
E:-------------------|


GUITAR ONE - "What a long, long time.."
G:----------------------------|--------------------------|
D:-----------11-----------11--|-----------8-----------8--|
A:-------888----------888-----|-------666---------666----|
E:--6666---------6666---------|--4444--------4444--------|

GUITAR TWO
G:----------------13----------------13--|-----------10-----------10--|
D:-------10-10-10----------10-10-10-----|-------888----------888-----|
A:--8888--------------8888--------------|--6666---------6666---------|
E:--------------------------------------|----------------------------|


Repeat Chorus


Repeat verse riff until outro.
            
Hard to play? Try these video lessons and learn fast. | Correct




comments powered by Disqus
↑ Back to top | Tablatures and chords are parodies/interpretations of the original songs. You may use it for private study, scholarship, research or language learning purposes only