» » »

Genesis 12a Bass tabs (ver.1)

Artists:  A B C D E F G H I J K L M N O P Q R S T U V W X Y Z # 

Genesis 12a Bass tabs (ver.1)

Foreign Objects
Rating:
0/5 (0 votes)

Hard to play? Try these video lessons and learn fast.
                -------------------------------------------------------------------------------
			     GENESIS 12/A - Foreign Objects
-------------------------------------------------------------------------------
Tuning: STANDARD (EADG)


Intro
g--------------------------|
d--------------------------|
a--------------------------|
e-6-6----6-6----4-4----4-4-|


Verse (Switch to 3/4 timing)
g-------------|-------------|-------------|-------------|
d---------8---|-6-------4---|---------8---|-6-----------|
a-8-----------|---4---4-----|-8-----------|---4---4-3---|
e---6-4-6---6-|-----6-----6-|---6-4-6---6-|-----6-----4-|


Chorus (Back to 4/4)
g--------------------------|
d--------------------------|
a--------------------------|
e-6666--6666----4444--4444-|


(Repeat Verse & Chorus)


Breakdown
g-----------------------------------------|
d-----------------------------------------|
a-----------8888-8888-5555-5555-7777-7777-|
e-5555-5555-------------------------------|

"What a long, long time.."
g-----------------------------------------|
d-----------------------------------------|
a-8888-8888-8888-8888-6666-6666-6666-6666-|
e-----------------------------------------|


(Repeat Chorus)

(Play the verse riff 8x over the solo/outro)
            
Hard to play? Try these video lessons and learn fast. | Correct




comments powered by Disqus
↑ Back to top | Tablatures and chords are parodies/interpretations of the original songs. You may use it for private study, scholarship, research or language learning purposes only