» » »

Hipnotizame Tabs (ver.3)

Artists:  A B C D E F G H I J K L M N O P Q R S T U V W X Y Z # 

Hipnotizame Tabs (ver.3)

Fobia
Rating:
0/5 (0 votes)

Hard to play? Try these video lessons and learn fast.
                HIPNOTIZAME-FOBIA
                                          esta sección se
                                          toca 2 veces
e)|-------------------------------------|-----------------|
b)|---------------------3-0--3-0-3--(0)-|-----------------|
g)|---0-2----2---2----0----0------------|-------0---------|
d)|-0----------0------------------------|---4-------4---4-|
a)|-------4---------0-------------------|-2---2---2---2---|
e)|-------------------------------------|-----------------|

Pude cerrar los ojos mas no pude dejar de verte,

e)|-------------------------------------|-----------------|
b)|---------------------3-0--3-0-3--(0)-|-----------------|
g)|---0-2----2---2----0----0------------|-------0---------|
d)|-0----------0------------------------|---4-------4---4-|
a)|-------4---------0-------------------|-2---2---2---2---|
e)|-------------------------------------|-----------------|

y dejar de dormir mas no dejar de soñar
e)|-------------------------------------|------------------------|
b)|---------------------3-0--3-0-3--(0)-|------------------------|
g)|---0-2----2---2----0----0------------|--------------0---------|
d)|-0----------0------------------------|---0-0-0-0--0---0-0-----|
a)|-------4---------0-------------------|------------------------|
e)|-------------------------------------|-2--2-2-2--3-3-3-3------|

Puedo callar las voces más no puedo dejar de oírte,

e)|-------------------------------------|-----------------|
b)|---------------------3-0--3-0-3--(0)-|-----------------|
g)|---0-2----2---2----0----0------------|-------0---------|
d)|-0----------0------------------------|---4-------4---4-|
a)|-------4---------0-------------------|-2---2---2---2---|
e)|-------------------------------------|-----------------|

puedo dejar de ser pero no puedo dejar de estar.
e)|-------------------------------------|------------------------|
b)|---------------------3-0--3-0-3--(0)-|------------------------|
g)|---0-2----2---2----0----0------------|--------------0---------|
d)|-0----------0------------------------|---0-0-0-0--0---0-0-----|
a)|-------4---------0-------------------|------------------------|
e)|-------------------------------------|-2--2-2-2--3-3-3-3------|

CORO (En el coro utiliza un arpegio sencillo para acompañar)

C    D       Am   F
Besame, hipnotízame,

C                             G
ya no me importa mas róbame el alma, hechizame

Puedo calmar mi mente mas no puedo calmar mi sangre,
e)|-------------------------------------|-----------------|
b)|---------------------3-0--3-0-3--(0)-|-----------------|
g)|---0-2----2---2----0----0------------|-------0---------|
d)|-0----------0------------------------|---4-------4---4-|
a)|-------4---------0-------------------|-2---2---2---2---|
e)|-------------------------------------|-----------------|

y puedo ser sincero sin dejar de mentir.

e)|-------------------------------------|------------------------|
b)|---------------------3-0--3-0-3--(0)-|------------------------|
g)|---0-2----2---2----0----0------------|--------------0---------|
d)|-0----------0------------------------|---0-0-0-0--0---0-0-----|
a)|-------4---------0-------------------|------------------------|
e)|-------------------------------------|-2--2-2-2--3-3-3-3------|

Puedo quedarme cerca, mas no puedo dejar de huirte
e)|-------------------------------------|-----------------|
b)|---------------------3-0--3-0-3--(0)-|-----------------|
g)|---0-2----2---2----0----0------------|-------0---------|
d)|-0----------0------------------------|---4-------4---4-|
a)|-------4---------0-------------------|-2---2---2---2---|
e)|-------------------------------------|-----------------|

puedo cambiar mi vida, mas no puedo cambiarme a mi

e)|-------------------------------------|------------------------|
b)|---------------------3-0--3-0-3--(0)-|------------------------|
g)|---0-2----2---2----0----0------------|--------------0---------|
d)|-0----------0------------------------|---0-0-0-0--0---0-0-----|
a)|-------4---------0-------------------|------------------------|
e)|-------------------------------------|-2--2-2-2--3-3-3-3------|


CORO

C    D       Am   F
Besame, hipnotízame,

C                             G
ya no me importa mas róbame el alma hechizame

C    D       Am   F
Besame, intoxícame,

           C                    G
ya no me importa ser, un ser sin alma atrápame.

INTERLUDE

e|---------------------------------------------|
B|---------------------------------------------|
G|-----------10-10-10-10-10--------------------|
D|-7-7-7-7---10-10-10-10-10---10-10-10-10--10--|
A|-7-7-7-7---8--8--8--8--8----10-10-10-10--10--|
E|-5-5-5-5--------------------8--8--8--8---8---|

e|---------------------------------------------|
B|---------------------------------------------|
G|-----------10-10-10-10-10--------------------|
D|-7-7-7-7---10-10-10-10-10----10-10-10-10-10--|
A|-7-7-7-7---8--8--8—-8--8-----10-10-10-10-10--|
E|-5-5-5-5---------------------8--8—-8--8--8---|

e|----------------------------------|
B|----------------------------------|
G|----------------------------------|
D|-9/10/9-10-2-2-2-2-2---3-3-3-3-3--|
A|-9/10/9-10-2-2-2-2-2---3-3-3-3-3--|
E|-7/8-/7/8--0-0-0-0-0---1-1-1-1-1--|

SOLO DE VIOLIN

MIENTRAS TOCAS EL SOLO DE VIOLIN TOCAS LAS NOTAS DEL CORO
e-8-7-8-7-8-7-8-7-12----------------|
B--------------------12-10----------|
G-----------------------------------|
D-----------------------------------|
A-----------------------------------|

e-12-15-10-15-12-15----12---10----10---|
B-------------------13----12---10----8-|
G--------------------------------------|
D--------------------------------------|
A--------------------------------------|
E--------------------------------------|

C    D       Am   F
Besame, hipnotízame,

C                             G
ya no me importa mas róbame el alma hechizame

C    D       Am   F
Besame, intoxícame,

           C                    G
ya no me importa ser, un ser sin alma atrápame.

ULTIMO SOLO DE VIOLIN ESTO SE TOCA EN EL ULTIMO CORO

e-8-7-8-7-8-7-8-7-12----------------|
B--------------------12-10----------|
G-----------------------------------|
D-----------------------------------|
A-----------------------------------|

e-12-15-10-15-12-15----12---10----10---|
B-------------------13----12---10----8-|
G--------------------------------------|
D--------------------------------------|
A--------------------------------------|
E--------------------------------------|

e-8-7-8-7-8-7-8-7-8-7-8--12-----|
B------------------------12-----|
G------------------------12-----|
D-------------------------------|
A-------------------------------|
E-------------------------------|
            
Hard to play? Try these video lessons and learn fast. | Correct




comments powered by Disqus
↑ Back to top | Tablatures and chords are parodies/interpretations of the original songs. You may use it for private study, scholarship, research or language learning purposes only