>
 >
Hipnotizame 1

Hipnotizame 1 Guitar Tabs

Fobia - Hipnotizame 1 chords, tabs, tablatures, lyrics

Guitar lessons | Add/correct | Request | Top 50 tabs Artists:  A B C D E F G H I J K L M N O P Q R S T U V W X Y Z 0-9

Hipnotizame 1 Guitar Tabs – Fobia

CD, Sheet music, Poster

Do you like Hipnotizame 1? Share with your friends now
TabsTabs v2Tabs v3
Fobia
Hipnotízame
Paco Huidobro
Amor Chiquito (1995)

RIFF 1
e-----------------------------------------------------------------------------------------------------------|
B-----------------------------------------------------------------------------------------------------------|
G---------------------------------------7--4-----7--4------7----------------------0--------------------0----|
D------5--7----5--7---5---7-----4---------4----------4---------------4------4--------4-----4----4-------4---|
A ---5-------4--------------------------------------------------------2------2--------2-----2-----2------2--|
E-----------------------------------------------------------------------------------------------------------|

RIFF 2
e -------------------------------------------------------------------------------------------------------|
B--------------------------------------------------------------------------------------------------------|
G-------------------------------7--4------7--4------7----------------------------------------------------|
D------5--7------5--7-----4---------4----------4------------4-----4----4-----4------5-----5-----5-----5--|
A---5---------4---------------------------------------------2-----2----2-----2------3-----3-----3-----3--|
E--------------------------------------------------------------------------------------------------------|

CANCION:
   INTRO (RIFF 1)

   RIFF 1
        PUDE CERRAR LOS OJOS
        PERO NO PUDE DEJAR DE VERTE
   RIFF 2
        Y DEJAR DE DORMIR MAS NO
        DEJAR DE SOÑAR
   RIFF 1
        PUEDO CALLAR LAS VOCES MÁS
        NO PUEDO DEJAR DE OIRTE
   RIFF 2
        PUEDO DEJAR DE SER PERO
        NO PUEDO DEJAR DE ESTAR

   CORO:
  C    D              Am      F
   BESAME,  HIPNO... TIZA.... ME

            C                    Gsus4
  YA NO ME IMPORTA MAS ROBAME EL ALMA HECHIZAME

   RIFF 1
        PUEDO CALMAR MI MENTE
        MÁS NO PUEDO CALMAR MI SANGRE
   RIFF 2
        PUEDO SER SINCERO SIN
        DEJAR DE MENTIR
   RIFF 1
        PUEDO QUEDARME CERCA
        MÁS NO PUEDO DEJAR DE HUIRTE
   RIFF 2
        PUEDO CAMBIAR MI VIDA
        MÁS NO PUEDO CAMBIARME A MÍ


CORO:
  C     D            Am       F
   BESAME,  HIPNO... TIZA.... ME

          C              Gsus4
  YA NO ME IMPORTA MAS ROBAME EL ALMA HECHIZAME

  C     D            Am       F
   BESAME,  INTO.....XICA.....ME

          C              Gsus4
  YA NO ME IMPORTA SER UN SER SIN ALMA ATRAPAME


   E----------------------------------|
   B----------------------------------|
   G--2-2-2\--------------------------|
   D--2-2-2\-10-10-10-10--------------|
   A--0-0-0\--8--8--8--8-X-10-10-10---|
   E---------------------X--8--8--8---|

   E-------------------------------------------------------------------|
   B-------------------------------------------------------------------|
   G--2-2-2\-----------------------------------------------------------|
   D--2-2-2\-10-10-10-10-----------------------------------------------|
   A--0-0-0\--8--8--8--8-X-10-10-10/-9-\-10-10-10-10-------------------|
   E---------------------X--8--8--8/-7-\--8--8--8--8-------------------|

   AQUÍ VA UNA PARTE TOCADA CON VIOLIN.

   MISMOS ACORDES QUE EL CORO Y DESPUES:

  C    D             Am       F
   BESAME,  HIPNO... TIZA.... ME

          C               Gsus4
  YA NO ME IMPORTA MAS ROBAME EL ALMA HECHIZAME

  C    D             Am         F
   BESAME,  IDIO.....TIZA... ...ME

          C               Gsus4
  YA NO ME IMPORTA SER UN SER SIN ALMA ATRAPAME

ACORDES:

       C        D        Am         F       Gsus4
    E--0--------2---------0---------1---------3-----------|
    B--1--------3---------1---------1---------3-----------|
    G--0--------2---------2---------2---------5-----------|
    D--2--------0---------2---------3---------5-----------|
    A--3------------------0---------3---------5-----------|
    E-------------------------------1---------3-----------|





Comments


Popular Fobia tabs & chords
Crusifijo Tabs
El Diablo Tabs
Hipnotizame 2 Tabs
Hoy Tengo Miedo 1 Tabs
Hoy Tengo Miedo 2 Tabs
Hoy Tengo Miedo Intro Tabs
No Eres Yo 1 Tabs
Plastico Tabs
Veneno Vil 1 Tabs
Corazon En Caracol Ukulele


Song lyrics



↑ Back to top | Tablatures and chords are parodies/interpretations of the original songs. You may use it for private study, scholarship, research or language learning purposes only
© 2014 AZChords.com Contact us | Privacy policy | DMCA | Add/correct tabs | Request tabs | Top 50 tabs