» » »

Foals, Xxxxxx Tabs (ver.2)

Artists:  A B C D E F G H I J K L M N O P Q R S T U V W X Y Z # 

Xxxxxx Tabs (ver.2)

Foals Tabs
 Rating:
4/5 (4 votes)
Xxxxxx lessons Tabs too difficult? Try these video lessons and learn fast
1
                -------------------------------------------------------------------------------
                             xxxxx - Foals
-------------------------------------------------------------------------------

Tuning:Standard
Intro: play this countless amount of times.
e|---------------------------------------------------------------------------|
B|---------------------------------------------------------------------------|
G|------14-------------------------------------------------------------------|
D|---------------------------------------------------------------------------|
A|---0-----------------------------------------------------------------------|
E|---------------------------------------------------------------------------|
First Riff:
e|---------------------------------------------------------------------------|
B|---------------------------------------------------------------------------|
G|------17--21-----17---------17---------17----------------------------------|
D|---19---------19----21---21----19---19----17-------------------------------|
A|---------------------------------------------------------------------------|
E|---------------------------------------------------------------------------|

Second Riff:
e|--15-17-15-17-15-----------------------------------------------------------|
B|-----------------17-15---1515-17-15----1515-17-15--------------------------|
G|------------------------------------17------------17-----------------------|
D|---------------------------------------------------------------------------|
A|---------------------------------------------------------------------------|
E|---------------------------------------------------------------------------|


Structure//

Intro:
Jimmy plays for long time,
Yannis joins in every so often

Riff 1 Start: As Yannis continues playing intro bit,
Jimmy starts to playing riff 1 while drums build up.

Riff 1: Both Guitars play riff 1.

Riff 2: Jimmy continues to play riff 1 for rest of song,
Yannis stops playing riff 1 and plays riff 2 (4 times) and then song stops.

The structure is more complicated sounding than the song..

and Treat we have a tab! 
Enjoy I hope.
Good fun to jam to and improvise.
big love x
************************************

| s   slide
| h   hammer-on
| p   pull-off
| ~   vibrato
| +   harmonic
| x   Mute note

************************************
            
Submit corrections

comments powered by Disqus
↑ Back to top | Foals Tabs for Xxxxxx. Lyrics for acoustic guitar and electric guitar. 1 Tablatures and chords are parodies/interpretations of the original songs. You may use it for private study, scholarship, research or language learning purposes only