>
 >
Total Life Forever

Total Life Forever Guitar Tabs

Foals - Total Life Forever chords, tabs, tablatures, lyrics

Guitar lessons | Add/correct | Request | Top 50 tabs Artists:  A B C D E F G H I J K L M N O P Q R S T U V W X Y Z 0-9

Total Life Forever Guitar Tabs – Foals

CD, Sheet music, Poster

Do you like Total Life Forever? Share with your friends now
Bass TabsBass Tabs v2ChordsTabsUkulele

Tuning: Standard
 
Guitar 1 (LEFT)
Intro and verse (slightly muted)
e|------------------------------------------------------------------------|
B|-15-15-15-15-15-15-15-15-15-15-15-15-15-15-15-15-15-15-15-15-15---------|
G|------------------------------------------------------------------------|
D|------------------------------------------------------------------------|
A|------------------------------------------------------------------------|
E|------------------------------------------------------------------------|

Chorus
e|------------------------------------------------------------------------|
B|-15--17---------------15----------------15-17---------15----------------|
G|---------17--14-17-17----17-14--1717-17-------14--17------17------------|
D|------------------------------------------------------------------------|
A|------------------------------------------------------------------------|
E|------------------------------------------------------------------------|

e|------------------------------------------------------------------------|
B|-15--17-----------------------------------------------------------------|
G|---------17--14-17-17-17-14-14--17-17-14-14--17--17-14------------------|
D|------------------------------------------------------------------------|
A|------------------------------------------------------------------------|
E|------------------------------------------------------------------------|

Verse (as before)

Chorus

‘Singularity...’ (These are offbeat, listen for timing)
e|------------------------------------------------------------------------|
B|--15--15--15--15--15--15--15--15--15--15--15--15--15--15----------------|
G|------------------------------------------------------------------------|
D|------------------------------------------------------------------------|
A|------------------------------------------------------------------------|
E|--------------------------------------------------------etc-------------|

Verse

Last chorus and end section
e|------------------------------------------------------------------------|
B|----------------------------------------------13------------------------|
G|-14-14-14--1414141414-16-16-16-1616161616-16------16--14----------------|
D|------------------------------------------------------------------------|
A|------------------------------------------------------------------------|
E|------------------------------------------------------------------------|

Guitar 2 (RIGHT)
Intro and Verse (after G1 plays)
e|---------------------------------------------------|
B|-10--1010-----10--1010-----------------------------|
G|-7---7-7------10--1010-------------9---------------|
D|-7---7-7------10--1010----10101010---10------------|
A|--------------------------10101010---10------------|
E|---------------------------------------------------|

e|--------------------------1212121212-8-------------|
B|-10--1010-----10--1010----1010101010-10------------|
G|-7---7-7------10--1010----9-9-9-9-9--9-------------|
D|-7---7-7------10--1010-----------------------------|
A|---------------------------------------------------|
E|---------------------------------------------------|

e|---------------------------------------------------|
B|-10--1010-----10--1010-----------------------------|
G|-7---7-7------10--1010-------------9---------------|
D|-7---7-7------10--1010----10101010---10------------|
A|--------------------------10101010---10------------|
E|---------------------------------------------------|

e|---------------------------12-12-12----------------|
B|-10--1010-----10--1010-----10-10-10----------------|
G|-7---7-7------10--1010-----9--9--9-----------------|
D|-7---7-7------10--1010-----------------------------|
A|---------------------------------------------------|
E|---------------------------------------------------|


There’s also this loop in the background
e|------------------------------------------------------------------------|
B|------------------------------------------------------------------------|
G|------------------------------------------------------------------------|
D|------------------------------------------------------------------------|
A|-17--12~~---15--12~~--12-15-12------------------------------------------|
E|------------------------------------------------------------------------|

Chorus
e|------------------------------------------------------------------------|
B|------------------------------------------------------------------------|
G|------------------------------------------------------------------------|
D|-12--14---------------12---------------12-14---------12-----------------|
A|---------15--12-15-15----15-12--151515-------12--15------15-------------|
E|------------------------------------------------------------------------|

e|------------------------------------------------------------------------|
B|------------------------------------------------------------------------|
G|------------------------------------------------------------------------|
D|-12--14-----------------------------------------------------------------|
A|---------15--12-15-15-15-12-12--151515-12-12--15-15-12------------------|
E|------------------------------------------------------------------------|

Verse (as before)

Chorus

‘Singularity...’ (This is played at different times throughout, so listen out for it)
e|------------------------------------------------------------------------|
B|---17--13~~~~-----------13----------------------------------------------|
G|----------------------------14~~~~--------------------------------------|
D|------------------------------------------------------------------------|
A|------------------------------------------------------------------------|
E|------------------------------------------------------------------------|

Last time
e|---------------17~~~----------------------------------------------------|
B|-18~~~--20~~~-----------------------------------------------------------|
G|------------------------------------------------------------------------|
D|------------------------------------------------------------------------|
A|------------------------------------------------------------------------|
E|------------------------------------------------------------------------|

Back into verse

Last chorus and end section

e|------------------------------------------------------------------------|
B|------------------------------------------------------------------------|
G|------------------------------------------------------------------------|
D|------------------------------------------------------------------------|
A|-12--12--12--12-12-12-12-14-14--14141414-14-14--15--14--12--------------|
E|------------------------------------------------------------------------|

************************************

| /   slide up
| \   slide down
| h   hammer-on
| p   pull-off
| ~   vibrato
| +   harmonic
| x   Mute note
| b   Bend
| pb  Pre-bend
| br  Bend release
| pbr Pre-bend release
| brb Bend release bend

************************************





Comments


Popular Foals tabs & chords
Late Night Bass Tabs
The French Open Bass Tabs
Tron 3 Bass Tabs
Brazil Is Here Tabs
Hummer Tabs
InhalerIntro Tabs
Moon Tabs
Red Sox Pugie Tabs
Spanish Sahara 2 Tabs
Spanish Sahara 3 Tabs


Song lyrics



↑ Back to top | Tablatures and chords are parodies/interpretations of the original songs. You may use it for private study, scholarship, research or language learning purposes only
© 2014 AZChords.com Contact us | Privacy policy | DMCA | Add/correct tabs | Request tabs | Top 50 tabs