» » »

Foals, Total Life Forever Bass tabs (ver.1)

Artists:  A B C D E F G H I J K L M N O P Q R S T U V W X Y Z # 

Total Life Forever Bass tabs (ver.1)

Foals Tabs
 Rating:
4/5 (4 votes)
Total Life Forever lessons Tabs too difficult? Try these video lessons and learn fast
1
                Verse - Hrd to hear, something like this
G|-----------------------------|
D|-----------------------------|
A|5----3--3-3----5----3--3-3-3-|
E|--55--------3----55----------|

Live Walter plays something along these lines
G|------------------------------|
D|---3h5------------3h5---------|
A|5---------------5-------------|
E|--------333331---------333331-|

Chorus
G|-------------------------------------------------------------|
D|-------------------------------------------------------------|
A|5-7--------5-7------5-7----5---5-7---------------------------|
E|----8-5-88-----5-888----5-8-8------8-5-88-8-55-8888-55-8-8-5-|

Break - wait a bit
G|19-21-17-----17-17-19-21-----17-19-17----|
D|----------19-------------19-----------19-|
A|-----------------------------------------|
E|-----------------------------------------|

last time
G|19-21-17----17-17-19-21----17-19-21----|
D|---------19-------------19----------19-|
A|---------------------------------------|
E|---------------------------------------|

Last Chorus
G|--------------------------------------------------------------------------------|
D|--------------------------------------------------------------------------------|
A|5-7-------------------------------------5-7-------------------------------------|
E|-----8--5-88-8/10-8-5-888-8/10-8-5-88-5-----8-5-88-8/10-8-5-888-8/10-8-5-5-8-5-|

sorry if this aint great its rushed, please correct me :)
            
Submit corrections

comments powered by Disqus
↑ Back to top | Foals Bass for Total Life Forever. Lyrics for acoustic guitar and electric guitar. 1 Tablatures and chords are parodies/interpretations of the original songs. You may use it for private study, scholarship, research or language learning purposes only