» » »

Blue Blood Tabs (ver.1)

Artists:  A B C D E F G H I J K L M N O P Q R S T U V W X Y Z # 

Blue Blood Tabs (ver.1)

Foals
Rating:
3/5 (3 votes)

Hard to play? Try these video lessons and learn fast.
                UPDATED

Intro

Yannis
e|----------------------------------------------12-----------------|
B|--14--14--14--12--14--14--14--12--14--14--14------14--14--14--12-|
G|-----------------------------------------------------------------|
D|-----------------------------------------------------------------|
A|-----------------------------------------------------------------|
E|-----------------------------------------------------------------|

Changes on second time that yannis sings "Of all the people"
e|-----------------------------------------------------------------|
B|--14--14--14--12--14--14--14--12--14--14--14--12--10--10--10--10-|
G|-----------------------------------------------------------------|
D|-----------------------------------------------------------------|
A|-----------------------------------------------------------------|
E|-----------------------------------------------------------------|

Jimmy
e|-----------------------------------------------------------------|
B|-----------------------------------------------------------------|
G|14--14--14--14--14--14--14--14--14--14--14--14--14--14--14--14---|
D|-----------------------------------------------------------------|
A|-----------------------------------------------------------------|
E|-----------------------------------------------------------------|

Changes on second verse
e|-----------------------------------------------------------------|
B|14--14--14--12--14--14--14--12--14--14--14--12--14--14--14--12---|
G|14--14--14--14--14--14--14--14--14--14--14--14--14--14--14--14---|
D|-----------------------------------------------------------------|
A|-----------------------------------------------------------------|
E|-----------------------------------------------------------------|

Verse 1

Yannis - .=palm muted
  .....................          .....................
e|14-14-14-14--14-14-14-17171714-14-14-14-14--14-14-14----------|
B|-----------------------------------------------------17171714-|
G|--------------------------------------------------------------|
D|--------------------------------------------------------------|
A|--------------------------------------------------------------|
E|--------------------------------------------------------------|

Jimmy plays the same as the Intro

Chorus

Both Guitars
e|-----------------------------------------------------------------------------|
B|----------------------------------------------17---------------------17------|
G|13-14-16--------13-14-16--------13-14-14/16-16---------13-14-14/16-16--------|
D|---------14-16-----------14-16------------------14-16------------------14-16-|
A|-----------------------------------------------------------------------------|
E|-----------------------------------------------------------------------------|

Verse played now is Yannis first part, Jimmy verse 2 part

Chorus again

Break

Yannis
e|-------14-------14-------14-------14-|
B|-----14-------14-------14-------14---|
G|14/16----14/16----14/16----14/16-----|
D|-------------------------------------|
A|-------------------------------------|
E|-------------------------------------|

Very very fast this bit
e|----------14h17----------14h17----------14h17----------14h17-|
B|-----14h17----------14h17----------14h17----------14h17------|
G|14h16----------14h16----------14h16----------14h16-----------|
D|-------------------------------------------------------------|
A|-------------------------------------------------------------|
E|-------------------------------------------------------------|

Then play this chord tremolo for a while
e|14-|
B|14-|
G|14-|
D|---|
A|---|
E|---|

And then this one until it goes back into the chorus
e|17-|
B|14-|
G|14-|
D|---|
A|---|
E|---|

Jimmy
e|----------------------------------------------|
B|----17------17-------------17------17---------|
G|1616--161416--161416---1616--161416--161416---|
D|--------------------16---------------------16-|
A|----------------------------------------------|
E|----------------------------------------------|

Chorus

Ending

Yannis plays Intro

Jimmy plays Verse 2

there you go....hopefully beter than last time.
            
Hard to play? Try these video lessons and learn fast. | Correct




comments powered by Disqus
↑ Back to top | Tablatures and chords are parodies/interpretations of the original songs. You may use it for private study, scholarship, research or language learning purposes only