>
 >
Cassie 6

Cassie 6 Bass Tabs

Flyleaf - Cassie 6 chords, tabs, tablatures, lyrics

Guitar lessons | Add/correct | Request | Top 50 tabs Artists:  A B C D E F G H I J K L M N O P Q R S T U V W X Y Z 0-9

Cassie 6 Bass Tabs – Flyleaf

CD, Sheet music, Poster

Do you like Cassie 6? Share with your friends now
Bass TabsBass Tabs v2Bass Tabs v3Bass Tabs v4Bass Tabs v5Bass Tabs v6Bass Tabs v7ChordsChords v2Chords v3Chords v4TabsTabs v2Tabs v3Tabs v4Tabs v5Tabs v6Tabs v7UkuleleUkulele v2
Intro/Post Chorus
G|------------------------------|
D|------------------------------|
A|-0000-11----00----0-1-0-------|
E|----------33----33------------|

Verse
G|---------------------------------------------------|
D|--7777-88-55-77-55-7877--X4--7777-88-77-55-7-------|
A|---------------------------------------------------|
E|---------------------------------------------------|


Pre Chorus
G|----------------------|
D|7777-88-77-55-7-------|
A|----------------------|
E|----------------------|

Chorus
G|----------------------------------------------------------|
D|----------------------------------------------------------|
A|----------------------------------------------------------|
E|-555555555555-888888888888-333333333333-1-1-1-1-----------|

Bridge
G|--------------------------------|
D|--00-77-88-77-55-77-88-77-------|
A|--------------------------------|
E|--------------------------------|

Intro  X4
Verse  X4
Pre Chorus x1
Chorus X2
Verse X3
Chorus X2
Verse X2
Bridge X6
Chorus X3

Great song, should be right, if i transposed it correctly





Comments


Popular Flyleaf tabs & chords
All Around Me (Acoustic) 2 Chords
Fully Alive 1 Chords
Again Drum Tabs
Broken Wings 2 Tabs
Fully Alive 9 Tabs
Ocean Waves 1 Tabs
Red Sam Tabs
Red Sam 1 Tabs
Something I Can Never Have Tabs
Cassie 2 Ukulele


Song lyrics



↑ Back to top | Tablatures and chords are parodies/interpretations of the original songs. You may use it for private study, scholarship, research or language learning purposes only
© 2014 AZChords.com Contact us | Privacy policy | DMCA | Add/correct tabs | Request tabs | Top 50 tabs