» » »

Flyleaf, Cassie Tabs (ver.3)

Artists:  A B C D E F G H I J K L M N O P Q R S T U V W X Y Z # 

Cassie Tabs (ver.3)

Flyleaf Tabs
 Rating:
4/5 (4 votes)
Cassie lessons Tabs too difficult? Try these video lessons and learn fast
1
                Tuning: Standard

Intro:
e|-----------------------------------------------------------------|
B|-----------------------------------------------------------------|
G|-----------------------------------------------------------------|
D|---7-7-7-7/8-8\5-5/7-7\5-5/7/8\7-7---------4x--------------------|
A|---7-7-7-7/8-8\5-5/7-7\5-5/7/8\7-7-------------------------------|
E|---5-5-5-5/6-6\3-3/5-5\3-3/5/6\5-5-------------------------------|

Verse:
e|-----------------------------------------------------------------|
B|-----------------------------------------------------------------|
G|-----------------------------------------------------------------|
D|-----------------------------------------------------------------|
A|-----------------------------------------------------------------|
E|---5-5-5-5-6-6-3-3-5-5-3-3-5-6-5-5-------------------------------|

      The question asked in order

e|-----------------------------------------------------------------|
B|-----------------------------------------------------------------|
G|-----------------------------------------------------------------|
D|-----------------------------------------------------------------|
A|-----------------------------------------------------------------|
E|---5-5-5-5-6-6-3-3-5-5-3-3-5-6-5-5-------------------------------|

      To save her life or take it?

e|-----------------------------------------------------------------|
B|-----------------------------------------------------------------|
G|-----------------------------------------------------------------|
D|---x-x-x-x-------------------------------------------------------|
A|---x-x-x-x-------------------------------------------------------|
E|---x-x-x-x-6-6-3-3-5-5-3-3-5-6-5-5-------------------------------|

     The answer no to avoid death

e|-----------------------------------------------------------------|
B|-----------------------------------------------------------------|
G|-----------------------------------------------------------------|
D|-----------------------------------------------------------------|
A|-----------------------------------------------------------------|
E|---5-5-5-5-6-6-3-3-5-5-3-3-5-6-5-5-------------------------------|

     The answer yes would make it

e|-----------------------------------------------------------------|
B|-----------------------------------------------------------------|
G|-----------------------------------------------------------------|
D|---x-x-x-x-x-x-x-x-----------------------------------------------|
A|---x-x-x-x-x-x-x-x-----------------------------------------------|
E|---x-x-x-x-x-x-x-x-----------------------------------------------|

                                 Make it.

Chorus:
e|-----------------------------------------------------------------|
B|-----------------------------------------------------------------|
G|----------------------------------5-5-5-5-5-5-5-5-5-5-5-5-5-5-5-5|
D|--7-7-7-7-7-7-7-7-7-7-7-7-7-7-7-7-5-5-5-5-5-5-5-5-5-5-5-5-5-5-5-5|
A|--7-7-7-7-7-7-7-7-7-7-7-7-7-7-7-7-3-3-3-3-3-3-3-3-3-3-3-3-3-3-3-3|
E|--5-5-5-5-5-5-5-5-5-5-5-5-5-5-5-5--------------------------------|

           “Do you believe in God?”         Written on the bullet

e|-----------------------------------------------------------------|
B|-----------------------------------------------------------------|
G|--4-4-4-4-4-4-4-4-4-4-4-4-4-4-4-4--------------------------------|
D|--5-5-5-5-5-5-5-5-5-5-5-5-5-5-5-5--3-3-3-3-3---------------------|
A|--2-2-2-2-2-2-2-2-2-2-2-2-2-2-2-2--3-3-3-3-3---------------------|
E|-----------------------------------1-1-1-1-1---------------------|

                                 Say “yes” to pull the trigger

e|-----------------------------------------------------------------|
B|-----------------------------------------------------------------|
G|----------------------------------5-5-5-5-5-5-5-5-5-5-5-5-5-5-5-5|
D|--7-7-7-7-7-7-7-7-7-7-7-7-7-7-7-7-5-5-5-5-5-5-5-5-5-5-5-5-5-5-5-5|
A|--7-7-7-7-7-7-7-7-7-7-7-7-7-7-7-7-3-3-3-3-3-3-3-3-3-3-3-3-3-3-3-3|
E|--5-5-5-5-5-5-5-5-5-5-5-5-5-5-5-5--------------------------------|

           “Do you believe in God?”         Written on the bullet

e|-----------------------------------------------------------------|
B|-----------------------------------------------------------------|
G|--4-4-4-4-4-4-4-4-4-4-4-4-4-4-4-4--------------------------------|
D|--5-5-5-5-5-5-5-5-5-5-5-5-5-5-5-5--3-3-3-3-3---------------------|
A|--2-2-2-2-2-2-2-2-2-2-2-2-2-2-2-2--3-3-3-3-3---------------------|
E|-----------------------------------1-1-1-1-1---------------------|

                                 And Cassie pulled the trigger

Intro:
e|-----------------------------------------------------------------|
B|-----------------------------------------------------------------|
G|-----------------------------------------------------------------|
D|---7-7-7-7/8-8\5-5/7-7\5-5/7/8\7-7---------2x--------------------|
A|---7-7-7-7/8-8\5-5/7-7\5-5/7/8\7-7-------------------------------|
E|---5-5-5-5/6-6\3-3/5-5\3-3/5/6\5-5-------------------------------|

Verse:
e|-----------------------------------------------------------------|
B|-----------------------------------------------------------------|
G|-----------------------------------------------------------------|
D|-----------------------------------------------------------------|
A|-----------------------------------------------------------------|
E|---5-5-5-5-6-6-3-3-5-5-3-3-5-6-5-5-------------------------------|

      All heads are bowed in silence

e|-----------------------------------------------------------------|
B|-----------------------------------------------------------------|
G|-----------------------------------------------------------------|
D|-----------------------------------------------------------------|
A|-----------------------------------------------------------------|
E|---5-5-5-5-6-6-3-3-5-5-3-3-5-6-5-5-------------------------------|

      To remember her last sentence

e|-----------------------------------------------------------------|
B|-----------------------------------------------------------------|
G|-----------------------------------------------------------------|
D|-----------------------------------------------------------------|
A|-----------------------------------------------------------------|
E|---5-5-5-5-6-6-3-3-5-5-3-3-5-6-5-5-------------------------------|

     She answered him knowing what would happen

e|-----------------------------------------------------------------|
B|-----------------------------------------------------------------|
G|-----------------------------------------------------------------|
D|-----------------------------------------------------------------|
A|-----------------------------------------------------------------|
E|---5-5-5-5-6-6-3-3-5-5-3-3-5-6-5-5-------------------------------|

     Her last words still hanging in the air

e|-----------------------------------------------------------------|
B|-----------------------------------------------------------------|
G|-----------------------------------------------------------------|
D|---x-x-x-x-x-x-x-x-----------------------------------------------|
A|---x-x-x-x-x-x-x-x-----------------------------------------------|
E|---x-x-x-x-x-x-x-x-----------------------------------------------|

                               In the air.

Chorus 1x
Intro 2x

The “How many will die? I will die. I will say yes” part has either no guitar or a very quiet one…

Chorus:
e|-----------------------------------------------------------------|
B|-----------------------------------------------------------------|
G|----------------------------------5-5-5-5-5-5-5-5-5-5-5-5-5-5-5-5|
D|--7-7-7-7-7-7-7-7-7-7-7-7-7-7-7-7-5-5-5-5-5-5-5-5-5-5-5-5-5-5-5-5|
A|--7-7-7-7-7-7-7-7-7-7-7-7-7-7-7-7-3-3-3-3-3-3-3-3-3-3-3-3-3-3-3-3|
E|--5-5-5-5-5-5-5-5-5-5-5-5-5-5-5-5--------------------------------|

           “Do you believe in God?”         Written on the bullet

e|-----------------------------------------------------------------|
B|-----------------------------------------------------------------|
G|--4-4-4-4-4-4-4-4-4-4-4-4-4-4-4-4--------------------------------|
D|--5-5-5-5-5-5-5-5-5-5-5-5-5-5-5-5--3-3-3-3-3-3-------------------|
A|--2-2-2-2-2-2-2-2-2-2-2-2-2-2-2-2--3-3-3-3-3-3-------------------|
E|-----------------------------------1-1-1-1-1-1-------------------|

                                 Say “yes” to pull the trigger

e|-----------------------------------------------------------------|
B|-----------------------------------------------------------------|
G|----------------------------------5-5-5-5-5-5-5-5-5-5-5-5-5-5-5-5|
D|--7-7-7-7-7-7-7-7-7-7-7-7-7-7-7-7-5-5-5-5-5-5-5-5-5-5-5-5-5-5-5-5|
A|--7-7-7-7-7-7-7-7-7-7-7-7-7-7-7-7-3-3-3-3-3-3-3-3-3-3-3-3-3-3-3-3|
E|--5-5-5-5-5-5-5-5-5-5-5-5-5-5-5-5--------------------------------|

           “Do you believe in God?”         Written on the bullet

e|-----------------------------------------------------------------|
B|-----------------------------------------------------------------|
G|--4-4-4-4-4-4-4-4-4-4-4-4-4-4-4-4--------------------------------|
D|--5-5-5-5-5-5-5-5-5-5-5-5-5-5-5-5--3-3-3-3-3---------------------|
A|--2-2-2-2-2-2-2-2-2-2-2-2-2-2-2-2--3-3-3-3-3---------------------|
E|-----------------------------------1-1-1-1-1---------------------|

                                 And Cassie pulled the trigger

e|-----------------------------------------------------------------|
B|-----------------------------------------------------------------|
G|----------------------------------5-5-5-5-5-5-5-5-5-5-5-5-5-5-5-5|
D|--7-7-7-7-7-7-7-7-7-7-7-7-7-7-7-7-5-5-5-5-5-5-5-5-5-5-5-5-5-5-5-5|
A|--7-7-7-7-7-7-7-7-7-7-7-7-7-7-7-7-3-3-3-3-3-3-3-3-3-3-3-3-3-3-3-3|
E|--5-5-5-5-5-5-5-5-5-5-5-5-5-5-5-5--------------------------------|

    Do you believe? Do you believe in God? Do you believe?

e|-----------------------------------------------------------------|
B|-----------------------------------------------------------------|
G|--4-4-4-4-4-4-4-4-4-4-4-4-4-4-4-4--------------------------------|
D|--5-5-5-5-5-5-5-5-5-5-5-5-5-5-5-5--3-3-3-3-3---------------------|
A|--2-2-2-2-2-2-2-2-2-2-2-2-2-2-2-2--3-3-3-3-3---------------------|
E|-----------------------------------1-1-1-1-1---------------------|

     Do you believe? Do you believe in God?

     And I will pull the trigger.

-bkf
            
Submit corrections

comments powered by Disqus
↑ Back to top | Flyleaf Tabs for Cassie. Lyrics for acoustic guitar and electric guitar. 1 Tablatures and chords are parodies/interpretations of the original songs. You may use it for private study, scholarship, research or language learning purposes only