» » »

Flyleaf, Arise Tabs (ver.1)

Artists:  A B C D E F G H I J K L M N O P Q R S T U V W X Y Z # 

Arise Tabs (ver.1)

Flyleaf Tabs
 Rating:
3.6/5 (7 votes)
Arise lessons Tabs too difficult? Try these video lessons and learn fast
1
                

Drop D Tuning: D A D G B e

The verse and chorus are correct.  The chords of the pre-chorus are at least close.  I
a hard time picking out those chords in the mix, so had to resort to video recording
at a recent show (Flyleaf is great live by the way).  So, all of this tab is “Guitar 1” 
only.  If you find errors (and you probably will), please suggest corrections.  Thanks.


Verse 1 0:00 - 0:26
  Tell the swine...          There's a note in the pages...
e|-----10-----------------------------------10--------------------------|
B|-8------10-10h12-10-8-7---------------8------10-10h12-10-8-7----------|
G|---9--------------------7-7-9-----------9--------------------7-7-9----|
D|----------------------------------------------------------------------|
A|----------------------------------------------------------------------|
D|----------------------------------------------------------------------|

  So, sleep...              When we awake, we'll know that...
e|-----10-----------------------------------10--------------------------|
B|-8------10-10h12-10-8-7---------------8------10-10h12-10-8-7----------|
G|---9--------------------7-7-9-----------9--------------------7-7-9----|
D|----------------------------------------------------------------------|
A|----------------------------------------------------------------------|
D|----------------------------------------------------------------------|


Pre-Chorus 0:27 - 0:42
  Sing to me,      about the end of the world
e|-------------------------------------------------------|
B|-------------------------------------------------------|
G|-------------------------------------------------------|
D|-10-9---2---------------12---14---10-------------------|
A|-10-9---2---------------12---14---10-------------------|
D|-------------------------------------------------------|
   4x 4x  8x              8x   8x   8x

  The end of these hammers and needles for you.
e|----------------------------------------------------------|
B|----------------------------------------------------------|
G|----------------------------------------------------------|
D|-12--------------14----------5----------10--12------------|
A|-12--------------14----------5----------10--12------------|
D|----------------------------------------------------------|
   8x              8x          8x         8x  8x


Chorus 0:43 - 1:09   overdrive w/ flanger

    Hold on               to the world...         there's some...
e|-----------------------|-----------------------|---------------|-------|
B|-----------------------|-----------------------|---------------|-------|
G|-14-12-12-11br---------|-14-11br---------------|---------------|13\7---|
D|--------------12-12-14-|--------14-14-12-12-14-|--13---14---16-|-------|
A|-----------------------|-----------------------|---------------|-------|
D|-----------------------|-----------------------|---------------|-------|
                                                    8x   8x   8x

      Hold on...          to the world...         there's some...
e|-----------------------|-----------------------|---------------|-------|
B|-----------------------|-----------------------|---------------|-------|
G|-14-12-12-11br---------|-14-11br---------------|---------------|13\7---|
D|--------------12-12-14-|--------14-14-12-12-14-|--13---14---16-|-------|
A|-----------------------|-----------------------|---------------|-------|
D|-----------------------|-----------------------|---------------|-------|
                                                    8x   8x   8x


Verse 2 1:10 - 1:35
  Snow on your face...               And your razor blades.
e|-----10-----------------------------------10--------------------------|
B|-8------10-10h12-10-8-7---------------8------10-10h12-10-8-7----------|
G|---9--------------------7-7-9-----------9--------------------7-7-9----|
D|----------------------------------------------------------------------|
A|----------------------------------------------------------------------|
D|----------------------------------------------------------------------|

  The twilight is bruised, and there you lie.
e|-----10-----------------------------------------------|
B|-8------10-10h12-10-8-7-------------------------------|
G|---9--------------------7-7-9-------------------------|
D|------------------------------------------------------|
A|------------------------------------------------------|
D|------------------------------------------------------|

e|------------------------------------------------------|
B|------------------------------------------------------|
G|------------------------------------------------------|
D|-7-9--7-9----7-9--7-9----7-9--9-7----7-9--7-9---------|
A|------------------------------------------------------|
D|------------------------------------------------------|
  (I think there are a few more notes in here, but can't pick them out)


Pre-Chorus 1:36 - 2:04
  Sing to me,      about the end of the world
e|-----------------------------------------------------------|
B|-----------------------------------------------------------|
G|-----------------------------------------------------------|
D|-10-9---2-------------------12---14---10-------------------|
A|-10-9---2-------------------12---14---10-------------------|
D|-----------------------------------------------------------|
   4x 4x  8x                  8x   8x   8x

  The end of these hammers and needles for you.
e|--------------------------------------------|
B|--------------------------------------------|
G|--------------------------------------------|
D|-12------------14-----------------5---------|
A|-12------------14-----------------5---------|
D|--------------------------------------------|
   8x            8x                 8x

  We'll cry tonight.          And in the morning...
e|-----------------------------------------------------------|
B|-----------------------------------------------------------|
G|-----------------------------------------------------------|
D|-10-9---2-------------------12---14---10-------------------|
A|-10-9---2-------------------12---14---10-------------------|
D|-----------------------------------------------------------|
   4x 4x  8x                  8x   8x   8x

  Stand in the sun...
e|-------------------|--------------|
B|-------------------|--------------|
G|-------------------|--------------|
D|-12--14--5---------|---10--12-----|
A|-12--14--5---------|---10--12-----|
D|-------------------|--------------|
   8x  8x  8x            8x 8x


Chorus 2:05 - 2:31


Bridge 2:32 - 2:44
  Sing                          Sing
e|----------------------------|-----------------|
B|----------------------------|-----------------|
G|----------------------------|--8---9---11-----|
D|-5---5-5---5-2----2-2---2-2-|-----------------|
A|-5---5-5---5-2----2-2---2-2-|-----------------|
D|-5---5-5---5-2----2-2---2-2-|-----------------|
   ^   ^ v   ^ ^    ^ v   ^ v    8x  8x  8x


Chorus 2:45 - 3:50  overdrive w/flanger
   A------r-------i-------s--------e-------------------------------|
e|-----------------------|-----------------------|-----------------|
B|-----------------------|-----------------------|-----------------|
G|-14-12-12-11br---------|-14-11br---------------|--8---9---11-----|
D|--------------12-12-14-|--------14-14-12-12-14-|-----------------|
A|-----------------------|-----------------------|-----------------|
D|-----------------------|-----------------------|-----------------|
                                                    8x   8x   8x

   Arise             and  be...
e|-----------------------|-----------------------|--------------|------|
B|-----------------------|-----------------------|--------------|------|
G|-14-12-12-11br---------|-14-11br---------------|--------------|-13\7-|x4
D|--------------12-12-14-|--------14-14-12-12-14-|-13---14---16-|------|
A|-----------------------|-----------------------|--------------|------|
D|-----------------------|-----------------------|--------------|------|
                                                   8x   8x   8x


Outro 3:51 - end  (no guitars)

h = hammer on
b = bend
r = release bend
\ = slide down
/ = slide up

^ = down stroke
v = up stroke
            
Submit corrections

comments powered by Disqus
↑ Back to top | Flyleaf Tabs for Arise. Lyrics for acoustic guitar and electric guitar. 1 Tablatures and chords are parodies/interpretations of the original songs. You may use it for private study, scholarship, research or language learning purposes only