» » »

Flyleaf, Arise Bass tabs (ver.1)

Artists:  A B C D E F G H I J K L M N O P Q R S T U V W X Y Z # 

Arise Bass tabs (ver.1)

Flyleaf Tabs
 Rating:
4.2/5 (5 votes)
Arise lessons Tabs too difficult? Try these video lessons and learn fast
                Bass Tab

Tuning: Drop D

Intro/Verse:
G|--------------------------------------------------------------|
D|--------------------------------------------------------------|
A|-/-77--7-7--6-7--7-99--9-10-10--10--10-10-10-10--10-10-12-12--| x2
D|--------------------------------------------------------------|

G|-----------------------------------------------|
D|-----------------------------------------------|
A|-77--7-7--6-7--7-99--9-10-10--10--10-10-999999-|
D|-----------------------------------------------|

G|------------------------------------------------------------------------------|
D|-8h9-10-10-10-10-10-10-10-10-10-10-10-10--------------------------------------|
A|-----------------------------------------8h9-10-10-10-10-10-10-10-9-9-9-9-9-9-|
D|------------------------------------------------------------------------------|

Pre-Chorus: (00:27)
G|-------------------------------------------------------------|
D|-------------------------------------------------------------|
A|-----------------------------------------------5-5-5-5-5-5-5-|
D|-10--10--10--10--10--10--10--10--2-2-2-2-2-2-2---------------|

G|----------------------------------|
D|----------------------------------|
A|-4-4-4-4--3-3-3-3-3-3-3-3-3-3-3-3-|
D|----------------------------------|

G|-------------------------------------------------------------|
D|-------------------------------------------------------------|
A|-------------------------------------------------------------|
D|-5-5-5-5-5-5-5--6-6-6-6-6-6-6--10-10-10-10-10-10-10-10-10-10-|

Chorus: (00:43)
G|----------------------------------------------|
D|----------------------------------------------|
A|----------------------------------------------|
D|-2-2~-2-2-2-2-2-2-2-2-0-0-0-0-0-0-0-0-0-0-0-0-|
                                                                   x2
G|-------------------------------------------------------------|
D|-------------------------------------------------------------|
A|-------------------------------------------------------------|
D|-7-7-7-7-7-7-7-7-7-7-7-7-10-10-10-10-10-10-10-10-10-10-10-10-|

Verse 2: (01:09)
G|------------------------------------------------------------|
D|------------------------------------------------------------|
A|-77--7-7--6-7--7-99--9-10-10--10--10-10-10-10--10-10-12-12--|
D|------------------------------------------------------------|

G|----------------------------------------|-----------------------|
D|----------------------------------------|-14-0-13h14-14-0-------|
A|-77--7-7--6-7--7-99--9-10-10--10--10-10-|-----------------13h12-|
D|----------------------------------------|-----------------------|

G|-------------------------------------------------------|
D|-------------------------------------------------------|
A|--77--7-7--6-7--7-99--9-10-10--10--10-10-10-10--10-10--|
D|-------------------------------------------------------|

G|---------------------------------------------------------------------------|
D|-10-10-10-10-10-10-10-10-10-10-10-10---------------------------------------|
A|--------------------------------------8h9-10-10-10-10-10-10-10-9-9-9-9-9-9-|
D|---------------------------------------------------------------------------|

Pre-Chorus 2: (01:36)
G|-------------------------------------------------------------|
D|-------------------------------------------------------------|
A|-----------------------------------------------5-5-5-5-5-5-5-|
D|-10--10--10--10--10--10--10--10--2-2-2-2-2-2-2---------------|

G|----------------------------------|
D|----------------------------------|
A|-4-4-4-4--3-3-3-3-3-3-3-3-3-3-3-3-|
D|----------------------------------|

G|-------------------------------------------------------------|
D|-------------------------------------------------------------|
A|-------------------------------------------------------------|
D|-5-5-5-5-5-5-5--6-6-6-6-6-6-6--10-10-10-10-10-10-10-10-10-10-|

G|----------------------------------------------------------------|
D|----------------------------------------------------------------|
A|----------------5-5-5-5-5-5-5--4-4-4-4--3-3-3-3-3-3-3-3-3-3-3-3-|
D|--2-2-2-2-2-2-2-------------------------------------------------|

G|-------------------------------------------------------------|
D|-------------------------------------------------------------|
A|-------------------------------------------------------------|
D|-5-5-5-5-5-5-5--6-6-6-6-6-6-6--10-10-10-10-10-10-10-10-10-10-|

Chorus: (02:05)
G|----------------------------------------------|
D|----------------------------------------------|
A|----------------------------------------------|
D|-2-2~-2-2-2-2-2-2-2-2-0-0-0-0-0-0-0-0-0-0-0-0-|
                                                                   x2
G|-------------------------------------------------------------|
D|-------------------------------------------------------------|
A|-------------------------------------------------------------|
D|-7-7-7-7-7-7-7-7-7-7-7-7-10-10-10-10-10-10-10-10-10-10-10-10-|

Bridge: (02:32)
G|----|----|
D|----|----|
A|----|----|
D|-5~-|-2~-|

(02:38)
G|-----------------------------------------------------------|
D|-----------------------------------------------------------|
A|-2-2---2-2---2-2-2-2-2-2-2-2\14-14-14-14-14-14-14-14-14-14-|
D|-----------------------------------------------------------|

(02:45) "Arise!..."
G|------------------------------------------|
D|------------------------------------------|
A|------------------------------------------|
D|-5--5--5--5--5--5--5--2--2--2--2--2--2--2-|

G|-------------------------------------------------------|
D|-------------------------------------------------------|
A|-2-2-2-2-2-2-2-2-2-2-2-2-2-2-2-2-2-2-2-2-2-2-2-2-2-2-2-|
D|-------------------------------------------------------|

Final Chorus: play until the end
G|---------------------------------------------|
D|---------------------------------------------|
A|---------------------------------------------|
D|-2-2-2-2-2-2-2-2-2-2-0-0-0-0-0-0-0-0-0-0-0-0-|
                                                                 x4
G|-------------------------------------------------------------|
D|-------------------------------------------------------------|
A|-------------------------------------------------------------|
D|-7-7-7-7-7-7-7-7-7-7-7-7-10-10-10-10-10-10-10-10-10-10-10-10-|

Last Note
G|----|
D|----|
A|----|
D|-2~-|
            
Submit corrections

comments powered by Disqus
↑ Back to top | Flyleaf Bass for Arise. Lyrics for acoustic guitar and electric guitar. Tablatures and chords are parodies/interpretations of the original songs. You may use it for private study, scholarship, research or language learning purposes only