» » »

Flobots, White Flag Warrior Tabs (ver.1)

Artists:  A B C D E F G H I J K L M N O P Q R S T U V W X Y Z # 

White Flag Warrior Tabs (ver.1)

Flobots Tabs
 Rating:
4.6/5 (9 votes)
White Flag Warrior lessons Tabs too difficult? Try these video lessons and learn fast
1
                Drop D Tuning
Okay.  I heard two versions of this song;  one was played in what I've
(one fret) higher.  Just a heads up to people that might think its off.

intro/chorus/riff
e-----------|
b-----------|
g-2-2-------|
d-2-2--2-3~-|
a-0-0--2-3~-|
d------2-3~-|

verse
you hit the note then let it ring out or increase its volume
e----
b----
g----
d-7~-
a-7~-
d-7~-

pre-chorus
guitar ( *'s = Played pretty fast)
e---------------------------------------|
b---------------------------------------|
g---------------------------------------| repeat several
d------------------------***------------| times
a-0-0---------0-0---------02-0-0--------|
d-----2-3-3-2-----2-3-3--2-------2-3-3--|

(viola)
e------------8-7------|
b-10-------------10-8-|
g----9----9-----------|
d------10-------------|
a---------------------|
d---------------------|

chorus/riff

Bridge
e-----------------------------------------------|
b-----------------------------------------------|
g-7-7------------------------5-3~--2-2----------|
d-7-7--7-8~--5-5--0-1~--3-3--5-3~--2-2----------|
a-5-5--7-8~--5-5--0-1~--3-3--3-1~--0-0----------|
d------7-8~--5-5--0-1~--3-3-------------2-3-3-2-|

e---------------------------------|
b---------------------------------|
g---------------------------------| repeat
d------------***------------------| until
a-0-0---------02-0-0----------0-0-|  changes
d-----2-3-3--2-------2-3-3--2-----|  riff

e------------------|
b------------------|
g------------------| repeat
d-***-------***----| until
a--02-0-0---02-0-0-| chorus
d-2--------2-------|
            
Submit corrections

comments powered by Disqus
↑ Back to top | Flobots Tabs for White Flag Warrior. Lyrics for acoustic guitar and electric guitar. 1 Tablatures and chords are parodies/interpretations of the original songs. You may use it for private study, scholarship, research or language learning purposes only