» » »

Flobots, White Flag Warrior Bass tabs (ver.1)

Artists:  A B C D E F G H I J K L M N O P Q R S T U V W X Y Z # 

White Flag Warrior Bass tabs (ver.1)

Flobots Tabs
 Rating:
4.3/5 (6 votes)
White Flag Warrior lessons Tabs too difficult? Try these video lessons and learn fast
                -------------------------------------------------------------------------------
-------------------------------------------------------------------------------
This is my first tab, but there are NONE out there for this song & I love it, so I had 
tab it out to share! Enjoy, Criticism welcome, -Archer


Tuning:Standard
Playing Note: You hammer on the 3(G), not the 0(E). I wasn't sure to put the (h) before 
after the note being hammered.

Intro
G|-------------------------------------------------------------------------|
D|-------------------------------------------------------------------------|
A|-------------------------------------------------------------------------|
E|--5--5--0--1--------5--5--0--1------5-----5-----5----5--5----------------|

Verse
G|-------------------------------------------------------------------------|
D|-------------------------------------------------------------------------|
A|-------------------------------------------------------------------------|
E|--5-00h35-3-5---5-00h35-0-1----5-00h35-3-5----5-00h35-0-1----------------|

G|-------------------------------------------------------------------------|
D|-------------------------------------------------------------------------|
A|-------------------------------------------------------------------------|
E|--5-00h35-3-5----5-00h35-0-1----5-00h35-5--------------------------------|

Bridge
G|-------------------------------------------------------------------------|
D|-------------------------------------------------------------------------|
A|-------------------------------------------------------------------------|
E|--5--5--0--1--1--1--5--5--0--1--1--1--5--5--0--1--1--1--5--5--0--1--1--1-|

G|-------------------------------------------------------------------------|
D|-------------------------------------------------------------------------|
A|-------------------------------------------------------------------------|
E|--5--5--0--1--1--1--5--5--0--1--1--1--5--5--0--1--5--5--0--1--1--1-------|

Chorus
G|-------------------------------------------------------------------------|
D|-------------------------------------------------------------------------|
A|-------------------------------------------------------------------------|
E|--5--5--0--1----5--5--0--1----5--5--0--1----5--5-------------------------|

Chorus w/ instrumental
G|-------------------------------------------------------------------------|
D|-----------------------------------------------------------5--5--0--1----|
A|---------------------------------------------5--5--0--1------------------|
E|---5--5--0--1----5--5--0--1----5--5--0--1--------------------------------|

G|-------------------------------------------------------------------------|
D|--3--3-------------------------------------------------------------------|
A|--------0--1-------------------------------------------------------------|
E|--------------1--1---1---------------------------------------------------|

Ending
G|----------------------------------------------------------------------------|
D|----------------------------------------------------------------------------|
A|----------------------------------------------------------------------------|
E|--5--5--0--1-(8x)-----------------------------------------------------------|

ORDER:
Intro  (1x)
Verse  (1x)
Bridge (1x)
Chorus (1x)
Verse  (2x)
Bridge (1x)
Chorus w/ instrumental (1x)
Bridge (1x)
Chorus (1x)
Ending (1x)

| /  slide up
| \  slide down
| h  hammer-on
| p  pull-off
| ~  vibrato
| +  harmonic
| x  Mute note
============================================================================
            
Submit corrections

comments powered by Disqus
↑ Back to top | Flobots Bass for White Flag Warrior. Lyrics for acoustic guitar and electric guitar. Tablatures and chords are parodies/interpretations of the original songs. You may use it for private study, scholarship, research or language learning purposes only