» » »

Handlebars Tabs (ver.1)

Artists:  A B C D E F G H I J K L M N O P Q R S T U V W X Y Z # 

Handlebars Tabs (ver.1)

Flobots
Rating:
1.6/5 (80 votes)

Tabs too difficult? Try these video lessons and learn fast.
                -------------------------------------------------------------------------------
                             HANDLEBARS - Flobots
-------------------------------------------------------------------------------

Tuning: EADGBe 

An amazing song, matched only by a great video too!!!

This is played all the way through the song:

e|-----------5---------------------------------------------------------------|
B|-------6-------6-----------5-------------------6-------5---8---5-----------|
G|---7-------------------5-------5-----------7-------5-----------------------|
D|-------------------7-------------------8-----------------------------------|
A|-----------------------------------8---------------------------------------|
E|---------------------------------------------------------------------------|

e|---------------6-------6--10---6-------5---8---5-----------5---------------|
B|-----------6-------8---------------6---------------5---8-------------------|
G|-------7-------------------------------------------------------------------|
D|---8-----------------------------------------------------------------------|
A|---------------------------------------------------------------------------|
E|---------------------------------------------------------------------------|


Then the chorus uses these barre chords:

Dm  557765
Am  577555
F   133211
C   335553
Bb  113331
Gm  355333
E   022100

In this order

Dm - Am - F - C - Bb - Gm - F - E

Each verse it gets louder and more prominent.
            
Tabs too difficult? Try these video lessons and learn fast.


comments powered by Disqus
↑ Back to top | Tablatures and chords are parodies/interpretations of the original songs. You may use it for private study, scholarship, research or language learning purposes only