» » »

Handlebars Bass tabs (ver.3)

Artists:  A B C D E F G H I J K L M N O P Q R S T U V W X Y Z # 

Handlebars Bass tabs (ver.3)

Flobots
Rating:
0/5 (0 votes)

Hard to play? Try these video lessons and learn fast.
                Artist : Flobots
Song   : Handlebars
Album  : Platypus & Fight With Tools

I've included the intro riff with this tab, its a cool riff to learn.
Also, i've left out a detailed structure - its easy to figure out

Intro Riff (For Those Bass players who get bored) I like to play it in this octave

G-----------------------------------------------------------15----15-19-15-|
D-------19-----------------------12-15----14-17-14----12-15----17----------|
A-17-20----20-------19--------13-------15----------13----------------------|
E-------------17-20----20--13----------------------------------------------|

G-------17---------------|
D-15-19---19----17-19----|
A------------19----------|
E---------------------17-|

Verse / Chorus
Let Notes Ring

G-----------------------------------------------------|
D-----------------------------------------------------|
A-5-----------------3-------1----/10-----8-----7------|
E-------5-----1---------------------------------------|

Chorus Progression
(During Final Chorus's slight pauses inbetween every other note change)

G------------------------------------------------------------------|
D------------------------------------------------------------------|
A-5-5-5-5-5-5-5-5---------------------------------3-3-3-3-3-3-3-3--|
E-----------------5-5-5-5-5-5-5-5-1-1-1-1-1-1-1-1------------------|

G--------------------------------------------------------------------------|
D--------------------------------------------------------------------------|
A-1-1-1-1-1-1-1-1-1/10-10-10-10-10-10-10-10-8-8-8-8-8-8-8-8-7-7-7-7-7-7-7-7|
E--------------------------------------------------------------------------|
Listen Out for the slides

Thanks!
            
Hard to play? Try these video lessons and learn fast. | Correct




comments powered by Disqus
↑ Back to top | Tablatures and chords are parodies/interpretations of the original songs. You may use it for private study, scholarship, research or language learning purposes only