» » »

The Chain Tabs (ver.2)

Artists:  A B C D E F G H I J K L M N O P Q R S T U V W X Y Z # 

The Chain Tabs (ver.2)

Fleetwood Mac
Rating:
0/5 (0 votes)

Hard to play? Try these video lessons and learn fast.
                Fleetwood Mac

I have only tabbed the intro, the other posts has the rest of the song.
You'll have to get the rhythm from the CD, "The Dance".
E-------------------------------*-------------------------------*
B-----0-----2-----2-------------*-----0-----2-----2-------------*
G-------------------------------*-------------------------------*
D--------2-----0--------2-----2-*--------2-----0--------2-----2-*
A-------------------------------*-------------------------------*
E--0-----------------0-----0----*--0-----------------0-----0----*

E-------------------------------*-------------------------------*
B-----0-----2-----2-------------*-----0-----2-----2-------------*
G-------------------------------*-------------------------------*
D--------2-----0--------2-----2-*--------2-----0--------2-----2-*
A-------------------------------*-------------------------------*
E--0-----------------0-----0----*--0-----------------0-----0----*

E-----------------0--0----------*-----------------0--0----------*
B--3-----3-----3----------------*--3-----3-----3----------------*
G-------------------------------*-------------------------------*
D-----2-----2-----2-----2-----2-*-----2-----2-----2-----2-----2-*
A-------------------------------*-------------------------------*
E--0-----0-----0-----0-----0----*--0-----0-----0-----0-----0----*

E-----------------0--0----------*3-2-0-----3--2--0--------------*
B--3-----3-----3----------------*-------3-----------------------*
G-------------------------------*-------------------------------*
D-----2-----2-----2-----2-----2-*-----2-----2-----2-----2-----2-*
A-------------------------------*-------------------------------*
E--0-----0-----0-----0-----0----*--0-----0-----0-----0-----0----*

E-------------------------------*-------------------------------*
B-----0-----2-----2-------------*-----0-----2-----2-------------*
G-------------------------------*-------------------------------*
D--------2-----0--------2-----2-*--------2-----0--------2-----2-*
A-------------------------------*-------------------------------*
E--0-----------------0-----0----*--0-----------------0-----0----*

E-------------------------------*3-2-0--------------------------*
B-----0-----2-----2-------------*------3------------------------*
G-------------------------------*-------------------------------*
D--------2-----0--------2-----2-*---------0-2-------------------*
A-------------------------------*-----------2-------------------*
E--0-----------------0-----0----*-----------0-------------------*
            
Hard to play? Try these video lessons and learn fast. | Correct




comments powered by Disqus
↑ Back to top | Tablatures and chords are parodies/interpretations of the original songs. You may use it for private study, scholarship, research or language learning purposes only