array
(
    
'golddustwoman' => 'golddustwoman'
    'fleetwoodmac' 
=> 'fleetwoodmac'
)
Gold Dust Woman Tabs (ver. 1) by Fleetwood Mac @ AZ CHORDS.COM
» » »

Gold Dust Woman Tabs (ver.1)

Artists:  A B C D E F G H I J K L M N O P Q R S T U V W X Y Z # 

Gold Dust Woman Tabs (ver.1)

Fleetwood Mac
Rating:
5/5 (5 votes)

Hard to play? Try these video lessons and learn fast.
                Intro:
  Bb       Dm         Bb        Dm       Dm
E-1--1----------------1--1-------------------|
B-3----3-------3vvvv--3----3--------3vvvv----|
G-3-------------------3----------------------|
D-0--------0----------0---------0------------|
A-x-------------------x----------------------|
E-x-------------------x----------------------|

  Dm
  Rock on gold dust wom-an.
  C
  Take your sil-ver spoon.
E---------------------------------|
B--------------------------3vvvv--|
G---------------------------------|
D---------------------------------|
A---------------------------------|
E---------------------------------|

                Dm           Bb      Dm         Bb      Dm        Dm
  And dig your grave.
E----------------------------1--1---------------1--1-----------------|
B---------------------3vvvv--3----3------3vvvv--3----3------3vvvv----|
G----------------------------3------------------3--------------------|
D----------------------------0--------0---------0--------0-----------|
A----------------------------x------------------x--------------------|
E----------------------------x------------------x--------------------|

  Dm
  Heart-less chal-lenge.
  C                       Dm            Dm   Bb       Dm       Dm
  Pick your path and I'll pray.
E---------------------------------------1----1--1-----------------|
B---------------------------------3-----3----3----3------3vvvv----|
G------------------------------2--------2----3--------------------|
D------------------------------------0--0----0--------0-----------|
A---------------------------------------0----x--------------------|
E---------------------------------------x----x--------------------|

  Dm
  Wake up in the morn-ing.
  C                              Dm      Bb           Dm       Bb    Dm
  See your sun-rise,loves, to go down.
E----------------------------------10vvvv10-----10/13-10vvvv---10vvvv--|
B--------------------------------------------13------------------------|
G----------------------------------------------------------------------|
D----------------------------------------------------------------------|
A----------------------------------------------------------------------|
E----------------------------------------------------------------------|

  Dm             C
  Lousy lov-ers, pick their prey,
                          Dm           Bb          Dm
  But they nev-er cry out loud.          Cry out
E--------------------------------------1--1-------------------|
B-------------------------------3vvvv--3----3----------3vvvv--|
G--------------------------------------3----------------------|
D--------------------------------------0-----------0----------|
A--------------------------------------x----------------------|
E--------------------------------------x----------------------|

  Dm            Bb
  Well, did she make you cry?, make you break down?
  C                           Dm
  Shat-ter your il-lusions of love.
            Bb
  And is it ov-er now?, do you know how?
     C                         Dm         Bb       Dm        Bb
  To pick up the pieces and go home.
E-----------------------------------------1--1---------------1--1---|
B----------------------------------3vvvv--3----3------3vvvv--3----3-|
G-----------------------------------------3------------------3------|
D-----------------------------------------0--------0---------0------|
A-----------------------------------------x------------------x------|
E-----------------------------------------x------------------x------|

  Bb         Dm               NC
E-----------------------------------------------|
B-13>(15)===>13-8>(10)==>8----6b>6-6b>6---------| b=1/2note bend
G----------------------------------------7vvvv--|
D-----------------------------------------------|
A-----------------------------------------------|
E-----------------------------------------------|

  Dm
  Rock on an-cient queen.
E--------------------------------|
B-----------------------------3--|
G---------------------------2----|
D-------------------------0------|
A--------------------------------|
E--------------------------------|

  Dm
  Fol-low those who pale,
  C       Dm                Bb       Dm         NC
  in your sha-dow.
E---------------------------1--1--------------------------------|
B--------------------3vvvv--3----3-------3vvvv--15b>15--10b>10--|
G---------------------------3-----------------------------------|
D---------------------------0--------0--------------------------|
A---------------------------x-----------------------------------|
E---------------------------x-----------------------------------|

  Dm
  Rul-ers make bad lov-ers.
E------------------------------------------|
B------------------------------------------|
G------------------------10>(11)>10-7\2p0--|
D------------------------------------------|
A------------------------------------------|
E------------------------------------------|

      C
  You bet-ter put your king-dom
         Dm
  up for sale.
E------------------------17-13-------------------17vvvv--|
B------------------------------15vvvv-15----15-----------|
G----------------------------------------17--------------|
D--------------------------------------------------------|
A--------------------------------------------------------|
E--------------------------------------------------------|

  Dm            Bb
  Well, did she make you cry?, make you break down?
  C                           Dm
  Shat-ter your il-lusions of love.
            Bb
  And is it ov-er now?, do you know how?
  C                            Dm
  To pick up the pieces and go home.

  Dm            Bb
  Well, did she make you cry?, make you break down?
  C                           Dm
  Shat-ter your il-lusions of love.
  Dm                 Bb
  Now, tell me is it ov-er now?, do you know how?
  C                            Dm
  To pick up the pieces and go home.
E--------------------------------------------------------------------|
B----------------------------------15vv15vv15vv15vv15vv15vv15vv15vv--|
G--------------------------------------------------------------------|
D--------------------------------------------------------------------|
A--------------------------------------------------------------------|
E--------------------------------------------------------------------|

      C  Dm        C  Dm              Dm
  And go home, and go home,  ahhhhh.
E------------------------------------------------------------|
B----------------------------------------15-13-13--13-15-15--|(Keyboard)
G------------------------------------------------------------|
D------------------------------------------------------------|
A------------------------------------------------------------|
E------------------------------------------------------------|

E----------------------------------------------------------------|
B-13>(15)-(15)>13-13>(15)-(15)------(15)-(15)-(15)>13------------|
G-----------------------------------------------------(12)>10-7--|
D----------------------------------------------------------------|
A----------------------------------------------------------------|
E----------------------------------------------------------------|

E-------------------|
B-------------------|
G-7\5-5--5-5-5-7-7--|
D-------------------|
A-------------------|
E-------------------|

  Dm
  Oooh,   pale    sha-dow,    of a wom-an.
E-----------------------------------------------------------|
B----------------------------------------------------18-15--|
G-5-5-5-7-7--5-5-5-7-7--------------------------------------|
D-------------------------------------------3-3-0-----------|
A-----------------------------------------------------------|
E-----------------------------------------------------------|

  Dm                C/D     Dm
  Black     wid-ow.
E----------------------------------|
B--15vv(11x)-----------------------|
G----------------------------------|
D---------------------0---0-3-0-0--|
A-------------------3---3----------|
E----------------------------------|

  Dm C/D   Dm                           C/D Dm
  Pale   sha-dow,         of a dra-gon.
E--------------------------------------------------|
B--------------------------------------------------|
G--------------------------------------------------|
D-----0---0-3-0-0-------------------------0-3-0-0--|
A---3---3-------------------------------3----------|
E--------------------------------------------------|

  Dm  C/D Dm           C/D     C Dm
  Dust    wom-an.
E-------------------------------------|
B-------------------------------------|
G-------------------------------------|
D-------0-3-0-0----------0-3-0---0-0--|
A-----3----------------3-------3------|
E-------------------------------------|

  Dm     C/D   Dm                       C/D     C Dm
  Ooooh, pale sha-dow,     of a wom-an.
E------------------------------------------------------|
B------------------------------------------------------|
G------------------------------------------------------|
D----------0---0-3-0-0--------------------0---0---0-0--|
A--------3---3--------------------------3---3---3------|
E------------------------------------------------------|

  Dm     C/D       Dm          Dm      C Dm
  Ooooh, black wid-ow.
E---------------------------------------------|
B---------------------------------------------|
G---------------------------------------------|
D----------0---0---0-0---------0-0-3-0---0-0--|
A--------3---3---3---------------------3------|
E---------------------------------------------|

  Dm     C/D     C  Dm             Dm      C Dm
  Ooooh, pale sha-dow of a dra-gon.
E-------------------------------------------------|
B-------------------------------------------------|
G-------------------------------------------------|
D----------0-3-0---0-0-------------0-0-3-0---0-0--|
A--------3-------3-------------------------3------|
E-------------------------------------------------|

  Dm      C Dm       Dm      C Dm
E-------------------------------------------------|
B-------------------------------------15-15-15-15-|  R&F
G-------------------------------------------------|
D-0-0-3-0---0-0------3-0-3-0---0-0----------------|
A---------3------------------3--------------------|
E-------------------------------------------------|


E,B,G,D,A,E, = guitar strings. >( )> = bend to note in ( )
and release. ( )> = bend to note in ( ) before playing.
vv = vibrato. === = hold bend. \ = slide down. / = slide
up. b> = 1/2 note bend and release.

Chord diagrams.

Bb      Dm      C       C/D
xx0331  x00231  032010  030010
            
Hard to play? Try these video lessons and learn fast. | Correct




comments powered by Disqus
↑ Back to top | Tablatures and chords are parodies/interpretations of the original songs. You may use it for private study, scholarship, research or language learning purposes only