» » »

Big Love Tabs (ver.2)

Artists:  A B C D E F G H I J K L M N O P Q R S T U V W X Y Z # 

Big Love Tabs (ver.2)

Fleetwood Mac
Rating:
0/5 (0 votes)

Hard to play? Try these video lessons and learn fast.
                Big Love
Fleetwood Mac
"The Dance"

The Verse is totally correct.  In the first version, the whole song
was a full octave to high.  Thanx Darryl for reminding me about the
movie.  It took a little bit of time, but i got it almost totally
right.  I am not too sure about the bass part of the solo.
This version is a lot harder!!!!!

tab inrelavance to the capo on 4th fret

Verse

E------------------*------------------*------------------*
B------------------*------------------*------------------*
G--------2---------*---------2--------*------------------*
D--0--2------------*--0--2------------*--2---------------*
A--0----0----0----0*--0----0----0----0*---------2--------*
E------------------*------------------*--3----3----3----3*

E------------------*------------------*------------------*
B------------------*------------------*------------------*
G------------------*------------------*------------------*
D--2---------------*--------2---------*---------2--------*
A---------2--------*--0--2------------*--0--2------------*
E--3----3----3----3*--1----1----1----1*--1----1----1----1*

E------------------*------------------*
B------------------*------------------*
G------------------*------------------*
D--2---------------*--2---------------*
A---------2--------*---------2--------*
E--0----0----0----0*--0----0----0----0*

Chorus

E------------------*------------------*
B------------------*------------------*
G------------------*------------------*
D--0------3--------*---------2--------*
A-----3------------*--0--2------------*
E--1----1----1----1*--1----1----1----1*

E------------------*------------0-----*--1--0------------*
B-----------------0*--1----3----------*---------3-----1-0*
G--2---------------*------------------*------------------*
D---------2--------*------------------*--0----0----0----0*
A--0----0----0----0*--0----0----0----0*------------------*
E------------------*------------------*------------------*

E--1--0------------*------------------*------------------*
B---------3-----1-0*------------------*------------------*
G------------------*--2------2-------0*--2---------------*
D--0----0----0----0*------------------*------------------*
A------------------*--0----0----0----0*--0----0----0----0*
E------------------*------------------*------------------*

E------------------*------------------*------------------*
B------------------*------------------*-----------------0*
G------------------*------------------*--2-------2-------*
D--0------3--------*---------2--------*------------------*
A-----3------------*--0--2------------*--0----0----0----0*
E--1----1----1----1*--1----1----1----1*------------------*

E-----------------0*------------------*------------------*
B-----1------3-----*-------3---------1*----0-------1----0*
G------------------*------------------*------------------*
D------------------*--0----0----0----0*--0----0----0----0*
A--0----0----0----0*------------------*------------------*
E------------------*------------------*------------------*

E------------------*------------------*
B------------------*------------------*
G--2------2-------0*--2---------------*
D------------------*------------------*
A--0----0----0----0*--0----0----0----0*
E------------------*------------------*

Solo
E--8------5-------8*-----5------8----5*--8-------5------8*
B------------------*------------------*------------------*
G------------------*------------------*------------------*
D------------------*--0----0----0----0*------------------*
A--0----0----0----0*------------------*--0----0----0----0*
E------------------*------------------*------------------*

E-----5------8----5*--8-------5------8*-----8------8----8*
B------------------*------------------*------------------*
G------------------*------------------*------------------*
D--0----0----0----0*------------------*--0----0----0----0*
A------------------*--0----0----0----0*------------------*
E------------------*------------------*------------------*

E--5-------5-------*--5---------------*------------------*
B-----------------8*------------------*---------0-------1*
G------------------*------------------*--2---------------*
D------------------*--0----0----0----0*------------------*
A--0----0----0----0*------------------*--0----0----0----0*
E------------------*------------------*------------------*

E------------------*--0-------1------3*-----1------0-----*
B-----0------1----3*------------------*-----------------1*
G------------------*------------------*------------------*
D--0----0----0----0*------------------*--0----0----0----0*
A------------------*--0----0----0----0*------------------*
E------------------*------------------*------------------*

E---------0--------*------------------*------------------*
B--3--------------3*-----1------1----0*------------------*
G------------------*------------------*--2-------2------0*
D------------------*--0----0----0----0*------------------*
A--0----0----0----0*------------------*--0----0----0----0*
E------------------*------------------*------------------*

E------------------*
B------------------*
G--2---------------*
D--0----0----0----0*
A------------------*
E------------------*

Verse 1
(Play "Verse")
You're looking out for love
In the night so still
Oh, I'll build you a kingdom on that house on the hill

Chorus
(Play "Chorus")
Lookin' out for loooove
Big, big love

Verse 2
(Play "Verse")
You said that you loved me
And that you always will
Oh you begged me to keep ya' in that house on the hill

Chorus
            
Hard to play? Try these video lessons and learn fast. | Correct




comments powered by Disqus
↑ Back to top | Tablatures and chords are parodies/interpretations of the original songs. You may use it for private study, scholarship, research or language learning purposes only