>
 >
Love Of A Lifetime 3

Love Of A Lifetime 3 Guitar Tabs

Firehouse - Love Of A Lifetime 3 chords, tabs, tablatures, lyrics

Guitar lessons | Add/correct | Request | Top 50 tabs Artists:  A B C D E F G H I J K L M N O P Q R S T U V W X Y Z 0-9

Love Of A Lifetime 3 Guitar Tabs – Firehouse

CD, Sheet music, Poster

Do you like Love Of A Lifetime 3? Share with your friends now
ChordsChords v2Chords v3Chords v4TabsTabs v2Tabs v3Tabs v4Ukulele
             Firehouse - Love of a Lifetime                                

           
  (Solo) 
                                                             
  H.           Q         H.           Q         H.           Q      
----------------------|----------------------|---------------------|
--8------------8br----|--7------------7br----|--5------------5b----|
----------------------|----------------------|---------------------|
----------------------|----------------------|---------------------|
----------------------|----------------------|---------------------|
----------------------|----------------------|---------------------|


                                               |-3-|        
  Q.     H         E       E  E   Q      E     S S S E  E   
------------------------|----------------------------------|
---------8b--------Lpb--|-----8--10b----10pb--10-8------8--|
--7---------------------|--9-----------------------9-L-----|
------------------------|----------------------------------|
------------------------|----------------------------------|
------------------------|----------------------------------|


         |-3-|                                                   
   E     S S S E  Q.     E  E      E   E   Q      E   Q.         
-------------------------------|-----------------17-------------|
--10pb--10-8------8------------|--15--17--17b--------17pbr------|
-------------9-L---------9-----|--------------------------------|
-------------------------------|--------------------------------|
-------------------------------|--------------------------------|
-------------------------------|--------------------------------|


   tr                       tr                       tr                    
   W                        W                        W                     
------------------------|--14(17)----------------|--17(22)----------------|
--15(19)----------------|------------------------|------------------------|
------------------------|------------------------|------------------------|
------------------------|------------------------|------------------------|
------------------------|------------------------|------------------------|
------------------------|------------------------|------------------------|


                        Chorus 3                              
   TP                                                         
   W                    W                                     
--22/----------------|-------------------|-------------------|
---------------------|-------------------|-------------------|
---------------------|-------------------|-------------------|
---------------------|-------------------|-------------------|
---------------------|-------------------|-------------------|
---------------------|-------------------|-------------------|



Duration Legend
---------------
W - whole
H - half
Q - quarter
E - 8th
S - 16th
T - 32nd
X - 64th
. - note dotted
|-n-|  - n-tuplets


Tablature Legend
----------------
L - tied note
x - dead note
g - grace note
(n) - ghost note
> - accentuded note
NH - natural harmonic
AH - artificial harmonic
TH - tapped harmonic
SH - semi harmonic
PH - pitch harmonic
h - hammer on
p - pull off
b - bend
br - bendRelease
pb - preBend
pbr - preBendRelease
brb - bendReleaseBend
\n/ - tremolo bar dip
\n - tremolo bar dive
-/n - tremolo bar Release up
/n\ - tremolo bar inverted dip
/n - tremolo bar return
-\n - tremolo bar Release down
S - shift slide
s - legato slide
/ -  slide into from below or out of upwards
\ -  slide into from above or out of downwards
~ - vibrato
W - wide vibrato
tr - trill
TP - tremolo picking
T - tapping
S - slap
P - pop
< - fade in
^ - brush up
v - brush down





Comments


Popular Firehouse tabs & chords
All She Wrote Bass Tabs
I Live My Life For You 2 Chords
I Need You Now Chords
Love Of A Lifetime 1 Chords
You Are My Religion Chords
Don't Treat Me Bad Tabs
Here For You 5 Tabs
Overnight Sensation 2 Tabs
Dont Treat Me Bad Ukulele
I Need You Now Ukulele


Song lyrics



↑ Back to top | Tablatures and chords are parodies/interpretations of the original songs. You may use it for private study, scholarship, research or language learning purposes only
© 2014 AZChords.com Contact us | Privacy policy | DMCA | Add/correct tabs | Request tabs | Top 50 tabs